ISO-10303-21;
HEADER;
FILE_DESCRIPTION (( 'STEP AP203' ),
    '1' );
FILE_NAME ('Web Model 68735.STEP',
    '2017-02-01T13:31:50',
    ( '' ),
    ( '' ),
    'SwSTEP 2.0',
    'SolidWorks 2016',
    '' );
FILE_SCHEMA (( 'CONFIG_CONTROL_DESIGN' ));
ENDSEC;

DATA;
#1 = DIRECTION ( 'NONE',  ( 0.0000000000000000000, 0.0000000000000000000, -1.000000000000000000 ) ) ;
#2 = CARTESIAN_POINT ( 'NONE',  ( 2.000000000000000000, 0.0000000000000000000, 0.0000000000000000000 ) ) ;
#3 = PERSON_AND_ORGANIZATION ( #57, #151 ) ;
#4 = CC_DESIGN_SECURITY_CLASSIFICATION ( #101, ( #156 ) ) ;
#5 = CIRCLE ( 'NONE', #62, 6.250000000000000000 ) ;
#6 = AXIS2_PLACEMENT_3D ( 'NONE', #70, #44, #140 ) ;
#7 = APPROVAL_DATE_TIME ( #8, #85 ) ;
#8 = DATE_AND_TIME ( #45, #80 ) ;
#9 = VERTEX_POINT ( 'NONE', #130 ) ;
#10 = CALENDAR_DATE ( 2017, 1, 2 ) ;
#11 = APPROVAL_PERSON_ORGANIZATION ( #48, #85, #60 ) ;
#12 = PRODUCT_RELATED_PRODUCT_CATEGORY ( 'detail', '', ( #174 ) ) ;
#13 = CARTESIAN_POINT ( 'NONE',  ( 2.000000000000000000, 0.0000000000000000000, 0.0000000000000000000 ) ) ;
#14 = CARTESIAN_POINT ( 'NONE',  ( 0.0000000000000000000, 0.0000000000000000000, 0.0000000000000000000 ) ) ;
#15 = LOCAL_TIME ( 8, 31, 50.00000000000000000, #169 ) ;
#16 = DIRECTION ( 'NONE',  ( 0.0000000000000000000, 0.0000000000000000000, 1.000000000000000000 ) ) ;
#17 = ADVANCED_BREP_SHAPE_REPRESENTATION ( 'Web Model 68735', ( #39, #131 ), #143 ) ;
#18 = APPLICATION_CONTEXT ( 'configuration controlled 3d designs of mechanical parts and assemblies' ) ;
#19 = APPROVAL_PERSON_ORGANIZATION ( #160, #110, #120 ) ;
#20 = DATE_TIME_ROLE ( 'classification_date' ) ;
#21 = FACE_OUTER_BOUND ( 'NONE', #37, .T. ) ;
#22 = ORIENTED_EDGE ( 'NONE', *, *, #158, .T. ) ;
#23 = DATE_AND_TIME ( #10, #15 ) ;
#24 = CYLINDRICAL_SURFACE ( 'NONE', #42, 6.250000000000000000 ) ;
#25 = PERSON_AND_ORGANIZATION ( #57, #151 ) ;
#26 = CARTESIAN_POINT ( 'NONE',  ( 2.000000000000000000, 0.0000000000000000000, 0.0000000000000000000 ) ) ;
#27 = DESIGN_CONTEXT ( 'detailed design', #18, 'design' ) ;
#28 = AXIS2_PLACEMENT_3D ( 'NONE', #14, #149, #126 ) ;
#29 = PLANE ( 'NONE',  #35 ) ;
#30 = VERTEX_POINT ( 'NONE', #118 ) ;
#31 = CALENDAR_DATE ( 2017, 1, 2 ) ;
#32 = PRODUCT_DEFINITION_SHAPE ( 'NONE', 'NONE',  #173 ) ;
#33 = ORIENTED_EDGE ( 'NONE', *, *, #78, .F. ) ;
#34 = DIRECTION ( 'NONE',  ( 0.0000000000000000000, 0.0000000000000000000, -1.000000000000000000 ) ) ;
#35 = AXIS2_PLACEMENT_3D ( 'NONE', #13, #167, #34 ) ;
#36 = ADVANCED_FACE ( 'NONE', ( #21 ), #67, .T. ) ;
#37 = EDGE_LOOP ( 'NONE', ( #33, #108, #124, #111 ) ) ;
#38 = PERSON_AND_ORGANIZATION ( #57, #151 ) ;
#39 = MANIFOLD_SOLID_BREP ( 'Extrude1', #152 ) ;
#40 = AXIS2_PLACEMENT_3D ( 'NONE', #96, #69, #128 ) ;
#41 = CIRCLE ( 'NONE', #40, 6.250000000000000000 ) ;
#42 = AXIS2_PLACEMENT_3D ( 'NONE', #2, #54, #139 ) ;
#43 = DIRECTION ( 'NONE',  ( -1.000000000000000000, -0.0000000000000000000, -0.0000000000000000000 ) ) ;
#44 = DIRECTION ( 'NONE',  ( 1.000000000000000000, 0.0000000000000000000, 0.0000000000000000000 ) ) ;
#45 = CALENDAR_DATE ( 2017, 1, 2 ) ;
#46 = VERTEX_POINT ( 'NONE', #98 ) ;
#47 = APPROVAL_STATUS ( 'not_yet_approved' ) ;
#48 = PERSON_AND_ORGANIZATION ( #57, #151 ) ;
#49 =( NAMED_UNIT ( * ) SI_UNIT ( $, .STERADIAN. ) SOLID_ANGLE_UNIT ( ) );
#50 = APPROVAL_STATUS ( 'not_yet_approved' ) ;
#51 = DATE_AND_TIME ( #89, #95 ) ;
#52 = SHAPE_DEFINITION_REPRESENTATION ( #32, #17 ) ;
#53 = AXIS2_PLACEMENT_3D ( 'NONE', #26, #43, #16 ) ;
#54 = DIRECTION ( 'NONE',  ( -1.000000000000000000, -0.0000000000000000000, -0.0000000000000000000 ) ) ;
#55 = CARTESIAN_POINT ( 'NONE',  ( 0.0000000000000000000, 0.0000000000000000000, 0.0000000000000000000 ) ) ;
#56 = DIRECTION ( 'NONE',  ( 0.0000000000000000000, 0.0000000000000000000, -1.000000000000000000 ) ) ;
#57 = PERSON ( 'UNSPECIFIED', 'UNSPECIFIED', 'UNSPECIFIED', ('UNSPECIFIED'), ('UNSPECIFIED'), ('UNSPECIFIED') ) ;
#58 = CARTESIAN_POINT ( 'NONE',  ( 0.0000000000000000000, 0.0000000000000000000, 0.0000000000000000000 ) ) ;
#59 = ORIENTED_EDGE ( 'NONE', *, *, #153, .F. ) ;
#60 = APPROVAL_ROLE ( '' ) ;
#61 = ADVANCED_FACE ( 'NONE', ( #115 ), #29, .T. ) ;
#62 = AXIS2_PLACEMENT_3D ( 'NONE', #58, #113, #56 ) ;
#63 = VECTOR ( 'NONE', #138, 1000.000000000000000 ) ;
#64 = PERSON_AND_ORGANIZATION_ROLE ( 'creator' ) ;
#65 = ORIENTED_EDGE ( 'NONE', *, *, #78, .T. ) ;
#66 = ORIENTED_EDGE ( 'NONE', *, *, #117, .F. ) ;
#67 = CYLINDRICAL_SURFACE ( 'NONE', #53, 6.250000000000000000 ) ;
#68 = DIRECTION ( 'NONE',  ( 0.0000000000000000000, 0.0000000000000000000, 1.000000000000000000 ) ) ;
#69 = DIRECTION ( 'NONE',  ( 1.000000000000000000, 0.0000000000000000000, 0.0000000000000000000 ) ) ;
#70 = CARTESIAN_POINT ( 'NONE',  ( 0.0000000000000000000, 0.0000000000000000000, 0.0000000000000000000 ) ) ;
#71 = PERSON_AND_ORGANIZATION ( #57, #151 ) ;
#72 = DIRECTION ( 'NONE',  ( 1.000000000000000000, 0.0000000000000000000, 0.0000000000000000000 ) ) ;
#73 = LINE ( 'NONE', #83, #63 ) ;
#74 = PERSON_AND_ORGANIZATION_ROLE ( 'creator' ) ;
#75 = COORDINATED_UNIVERSAL_TIME_OFFSET ( 5, 0, .BEHIND. ) ;
#76 = ADVANCED_FACE ( 'NONE', ( #148 ), #112, .F. ) ;
#77 = FACE_OUTER_BOUND ( 'NONE', #125, .T. ) ;
#78 = EDGE_CURVE ( 'NONE', #9, #30, #116, .T. ) ;
#79 = AXIS2_PLACEMENT_3D ( 'NONE', #97, #170, #1 ) ;
#80 = LOCAL_TIME ( 8, 31, 50.00000000000000000, #121 ) ;
#81 = UNCERTAINTY_MEASURE_WITH_UNIT (LENGTH_MEASURE( 1.000000000000000100E-005 ), #159, 'distance_accuracy_value', 'NONE');
#82 = CC_DESIGN_PERSON_AND_ORGANIZATION_ASSIGNMENT ( #134, #64, ( #173 ) ) ;
#83 = CARTESIAN_POINT ( 'NONE',  ( 2.000000000000000000, 0.0000000000000000000, 6.250000000000000000 ) ) ;
#84 = CARTESIAN_POINT ( 'NONE',  ( 2.000000000000000000, 0.0000000000000000000, 6.250000000000000000 ) ) ;
#85 = APPROVAL ( #105, 'UNSPECIFIED' ) ;
#86 = APPROVAL_PERSON_ORGANIZATION ( #25, #144, #175 ) ;
#87 = PERSON_AND_ORGANIZATION ( #57, #151 ) ;
#88 = PERSON_AND_ORGANIZATION_ROLE ( 'classification_officer' ) ;
#89 = CALENDAR_DATE ( 2017, 1, 2 ) ;
#90 = DATE_AND_TIME ( #161, #165 ) ;
#91 = APPLICATION_PROTOCOL_DEFINITION ( 'international standard', 'config_control_design', 1994, #18 ) ;
#92 = PERSON_AND_ORGANIZATION_ROLE ( 'design_supplier' ) ;
#93 = ORIENTED_EDGE ( 'NONE', *, *, #107, .F. ) ;
#94 = EDGE_CURVE ( 'NONE', #104, #9, #41, .T. ) ;
#95 = LOCAL_TIME ( 8, 31, 50.00000000000000000, #75 ) ;
#96 = CARTESIAN_POINT ( 'NONE',  ( 2.000000000000000000, 0.0000000000000000000, 0.0000000000000000000 ) ) ;
#97 = CARTESIAN_POINT ( 'NONE',  ( 2.000000000000000000, 0.0000000000000000000, 0.0000000000000000000 ) ) ;
#98 = CARTESIAN_POINT ( 'NONE',  ( 0.0000000000000000000, 0.0000000000000000000, 6.250000000000000000 ) ) ;
#99 = APPROVAL_DATE_TIME ( #23, #110 ) ;
#100 = CC_DESIGN_PERSON_AND_ORGANIZATION_ASSIGNMENT ( #87, #157, ( #174 ) ) ;
#101 = SECURITY_CLASSIFICATION ( '', '', #102 ) ;
#102 = SECURITY_CLASSIFICATION_LEVEL ( 'unclassified' ) ;
#103 = DATE_TIME_ROLE ( 'creation_date' ) ;
#104 = VERTEX_POINT ( 'NONE', #84 ) ;
#105 = APPROVAL_STATUS ( 'not_yet_approved' ) ;
#106 = ORIENTED_EDGE ( 'NONE', *, *, #158, .F. ) ;
#107 = EDGE_CURVE ( 'NONE', #46, #30, #166, .T. ) ;
#108 = ORIENTED_EDGE ( 'NONE', *, *, #94, .F. ) ;
#109 = DATE_AND_TIME ( #31, #127 ) ;
#110 = APPROVAL ( #47, 'UNSPECIFIED' ) ;
#111 = ORIENTED_EDGE ( 'NONE', *, *, #107, .T. ) ;
#112 = PLANE ( 'NONE',  #28 ) ;
#113 = DIRECTION ( 'NONE',  ( 1.000000000000000000, 0.0000000000000000000, 0.0000000000000000000 ) ) ;
#114 = CC_DESIGN_APPROVAL ( #85, ( #173 ) ) ;
#115 = FACE_OUTER_BOUND ( 'NONE', #146, .T. ) ;
#116 = LINE ( 'NONE', #168, #135 ) ;
#117 = EDGE_CURVE ( 'NONE', #30, #46, #5, .T. ) ;
#118 = CARTESIAN_POINT ( 'NONE',  ( 0.0000000000000000000, 7.654042494670957600E-016, -6.250000000000000000 ) ) ;
#119 = CC_DESIGN_DATE_AND_TIME_ASSIGNMENT ( #90, #20, ( #101 ) ) ;
#120 = APPROVAL_ROLE ( '' ) ;
#121 = COORDINATED_UNIVERSAL_TIME_OFFSET ( 5, 0, .BEHIND. ) ;
#122 = EDGE_LOOP ( 'NONE', ( #93, #66 ) ) ;
#123 = CC_DESIGN_APPROVAL ( #110, ( #156 ) ) ;
#124 = ORIENTED_EDGE ( 'NONE', *, *, #153, .T. ) ;
#125 = EDGE_LOOP ( 'NONE', ( #106, #65, #142, #59 ) ) ;
#126 = DIRECTION ( 'NONE',  ( 0.0000000000000000000, 0.0000000000000000000, -1.000000000000000000 ) ) ;
#127 = LOCAL_TIME ( 8, 31, 50.00000000000000000, #164 ) ;
#128 = DIRECTION ( 'NONE',  ( 0.0000000000000000000, 0.0000000000000000000, -1.000000000000000000 ) ) ;
#129 = CC_DESIGN_PERSON_AND_ORGANIZATION_ASSIGNMENT ( #71, #74, ( #156 ) ) ;
#130 = CARTESIAN_POINT ( 'NONE',  ( 2.000000000000000000, 7.654042494670957600E-016, -6.250000000000000000 ) ) ;
#131 = AXIS2_PLACEMENT_3D ( 'NONE', #55, #68, #72 ) ;
#132 = ADVANCED_FACE ( 'NONE', ( #77 ), #24, .T. ) ;
#133 = CIRCLE ( 'NONE', #79, 6.250000000000000000 ) ;
#134 = PERSON_AND_ORGANIZATION ( #57, #151 ) ;
#135 = VECTOR ( 'NONE', #137, 1000.000000000000000 ) ;
#136 = COORDINATED_UNIVERSAL_TIME_OFFSET ( 5, 0, .BEHIND. ) ;
#137 = DIRECTION ( 'NONE',  ( -1.000000000000000000, -0.0000000000000000000, -0.0000000000000000000 ) ) ;
#138 = DIRECTION ( 'NONE',  ( -1.000000000000000000, -0.0000000000000000000, -0.0000000000000000000 ) ) ;
#139 = DIRECTION ( 'NONE',  ( 0.0000000000000000000, 0.0000000000000000000, 1.000000000000000000 ) ) ;
#140 = DIRECTION ( 'NONE',  ( 0.0000000000000000000, 0.0000000000000000000, -1.000000000000000000 ) ) ;
#141 = APPROVAL_DATE_TIME ( #51, #144 ) ;
#142 = ORIENTED_EDGE ( 'NONE', *, *, #117, .T. ) ;
#143 =( GEOMETRIC_REPRESENTATION_CONTEXT ( 3 ) GLOBAL_UNCERTAINTY_ASSIGNED_CONTEXT ( ( #81 ) ) GLOBAL_UNIT_ASSIGNED_CONTEXT ( ( #159, #172, #49 ) ) REPRESENTATION_CONTEXT ( 'NONE', 'WORKASPACE' ) );
#144 = APPROVAL ( #50, 'UNSPECIFIED' ) ;
#145 = CC_DESIGN_PERSON_AND_ORGANIZATION_ASSIGNMENT ( #38, #92, ( #156 ) ) ;
#146 = EDGE_LOOP ( 'NONE', ( #171, #22 ) ) ;
#147 = CC_DESIGN_DATE_AND_TIME_ASSIGNMENT ( #109, #103, ( #173 ) ) ;
#148 = FACE_OUTER_BOUND ( 'NONE', #122, .T. ) ;
#149 = DIRECTION ( 'NONE',  ( 1.000000000000000000, 0.0000000000000000000, 0.0000000000000000000 ) ) ;
#150 = CC_DESIGN_APPROVAL ( #144, ( #101 ) ) ;
#151 = ORGANIZATION ( 'UNSPECIFIED', 'UNSPECIFIED', '' ) ;
#152 = CLOSED_SHELL ( 'NONE', ( #132, #36, #61, #76 ) ) ;
#153 = EDGE_CURVE ( 'NONE', #104, #46, #73, .T. ) ;
#154 = CC_DESIGN_PERSON_AND_ORGANIZATION_ASSIGNMENT ( #3, #88, ( #101 ) ) ;
#155 = APPLICATION_CONTEXT ( 'configuration controlled 3d designs of mechanical parts and assemblies' ) ;
#156 = PRODUCT_DEFINITION_FORMATION_WITH_SPECIFIED_SOURCE ( 'ANY', '', #174, .NOT_KNOWN. ) ;
#157 = PERSON_AND_ORGANIZATION_ROLE ( 'design_owner' ) ;
#158 = EDGE_CURVE ( 'NONE', #9, #104, #133, .T. ) ;
#159 =( LENGTH_UNIT ( ) NAMED_UNIT ( * ) SI_UNIT ( .MILLI., .METRE. ) );
#160 = PERSON_AND_ORGANIZATION ( #57, #151 ) ;
#161 = CALENDAR_DATE ( 2017, 1, 2 ) ;
#162 = APPLICATION_PROTOCOL_DEFINITION ( 'international standard', 'config_control_design', 1994, #155 ) ;
#163 = MECHANICAL_CONTEXT ( 'NONE', #155, 'mechanical' ) ;
#164 = COORDINATED_UNIVERSAL_TIME_OFFSET ( 5, 0, .BEHIND. ) ;
#165 = LOCAL_TIME ( 8, 31, 50.00000000000000000, #136 ) ;
#166 = CIRCLE ( 'NONE', #6, 6.250000000000000000 ) ;
#167 = DIRECTION ( 'NONE',  ( 1.000000000000000000, 0.0000000000000000000, 0.0000000000000000000 ) ) ;
#168 = CARTESIAN_POINT ( 'NONE',  ( 2.000000000000000000, 7.654042494670957600E-016, -6.250000000000000000 ) ) ;
#169 = COORDINATED_UNIVERSAL_TIME_OFFSET ( 5, 0, .BEHIND. ) ;
#170 = DIRECTION ( 'NONE',  ( 1.000000000000000000, 0.0000000000000000000, 0.0000000000000000000 ) ) ;
#171 = ORIENTED_EDGE ( 'NONE', *, *, #94, .T. ) ;
#172 =( NAMED_UNIT ( * ) PLANE_ANGLE_UNIT ( ) SI_UNIT ( $, .RADIAN. ) );
#173 = PRODUCT_DEFINITION ( 'UNKNOWN', '', #156, #27 ) ;
#174 = PRODUCT ( 'Web Model 68735', 'Web Model 68735', '', ( #163 ) ) ;
#175 = APPROVAL_ROLE ( '' ) ;
ENDSEC;
END-ISO-10303-21;
