ISO-10303-21;
HEADER;
FILE_DESCRIPTION (( 'STEP AP203' ),
    '1' );
FILE_NAME ('Web Model 66751.STEP',
    '2017-01-31T19:38:24',
    ( '' ),
    ( '' ),
    'SwSTEP 2.0',
    'SolidWorks 2016',
    '' );
FILE_SCHEMA (( 'CONFIG_CONTROL_DESIGN' ));
ENDSEC;

DATA;
#1 = DIRECTION ( 'NONE',  ( 0.0000000000000000000, -0.0000000000000000000, 1.000000000000000000 ) ) ;
#2 = EDGE_CURVE ( 'NONE', #262, #256, #138, .T. ) ;
#3 = CIRCLE ( 'NONE', #8, 6.250000000000000000 ) ;
#4 = ORIENTED_EDGE ( 'NONE', *, *, #65, .F. ) ;
#5 = AXIS2_PLACEMENT_3D ( 'NONE', #183, #231, #18 ) ;
#6 = PRODUCT_RELATED_PRODUCT_CATEGORY ( 'detail', '', ( #97 ) ) ;
#7 = ORIENTED_EDGE ( 'NONE', *, *, #2, .F. ) ;
#8 = AXIS2_PLACEMENT_3D ( 'NONE', #242, #1, #170 ) ;
#9 = CARTESIAN_POINT ( 'NONE',  ( 0.0000000000000000000, 0.0000000000000000000, 0.0000000000000000000 ) ) ;
#10 = DESIGN_CONTEXT ( 'detailed design', #258, 'design' ) ;
#11 = CARTESIAN_POINT ( 'NONE',  ( -7.654042494670959600E-016, -6.250000000000000000, -0.0008664250570321659800 ) ) ;
#12 = CARTESIAN_POINT ( 'NONE',  ( 0.0000000000000000000, 0.0000000000000000000, 0.0000000000000000000 ) ) ;
#13 = CARTESIAN_POINT ( 'NONE',  ( -4.166666941949721100, -4.166666941949721100, 0.0002888081998735900000 ) ) ;
#14 = VERTEX_POINT ( 'NONE', #260 ) ;
#15 = DATE_TIME_ROLE ( 'creation_date' ) ;
#16 = CARTESIAN_POINT ( 'NONE',  ( 0.0000000000000000000, 2.083333378345630000, 0.0000000000000000000 ) ) ;
#17 = PERSON_AND_ORGANIZATION ( #175, #73 ) ;
#18 = DIRECTION ( 'NONE',  ( 1.000000000000000000, 0.0000000000000000000, 0.0000000000000000000 ) ) ;
#19 = CARTESIAN_POINT ( 'NONE',  ( 0.0000000000000000000, 0.0000000000000000000, 0.0000000000000000000 ) ) ;
#20 = LOCAL_TIME ( 14, 38, 24.00000000000000000, #24 ) ;
#21 = CARTESIAN_POINT ( 'NONE',  ( -2.551347553347809800E-016, -2.083333378345630000, 0.0000000000000000000 ) ) ;
#22 = CARTESIAN_POINT ( 'NONE',  ( 0.0000000000000000000, 2.083333378345630000, 0.0000000000000000000 ) ) ;
#23 = EDGE_LOOP ( 'NONE', ( #4, #199, #203, #78 ) ) ;
#24 = COORDINATED_UNIVERSAL_TIME_OFFSET ( 5, 0, .BEHIND. ) ;
#25 = CARTESIAN_POINT ( 'NONE',  ( 0.0000000000000000000, 0.0000000000000000000, 0.0000000000000000000 ) ) ;
#26 = APPROVAL_DATE_TIME ( #268, #132 ) ;
#27 = VERTEX_POINT ( 'NONE', #237 ) ;
#28 = CARTESIAN_POINT ( 'NONE',  ( -6.250000000000000000, 1.653582669167220900E-015, -0.0008664250570321650000 ) ) ;
#29 = CARTESIAN_POINT ( 'NONE',  ( 0.0000000000000000000, 6.250000000000000000, -0.0008664250570321659800 ) ) ;
#30 = FACE_OUTER_BOUND ( 'NONE', #32, .T. ) ;
#31 = APPROVAL_PERSON_ORGANIZATION ( #200, #195, #39 ) ;
#32 = EDGE_LOOP ( 'NONE', ( #217, #137, #266, #220, #214 ) ) ;
#33 = CARTESIAN_POINT ( 'NONE',  ( 0.0000000000000000000, 4.166666941949720200, 0.0002888081998735900000 ) ) ;
#34 = CARTESIAN_POINT ( 'NONE',  ( 0.0000000000000000000, 8.881784197001250400E-016, -3.000000000000000000 ) ) ;
#35 = CARTESIAN_POINT ( 'NONE',  ( 1.913510623667739900E-016, 0.0000000000000000000, -3.000000000000000000 ) ) ;
#36 = CARTESIAN_POINT ( 'NONE',  ( 0.0000000000000000000, 6.250000000000000000, -0.0008664250570321659800 ) ) ;
#37 = DATE_AND_TIME ( #277, #192 ) ;
#38 = FACE_OUTER_BOUND ( 'NONE', #117, .T. ) ;
#39 = APPROVAL_ROLE ( '' ) ;
#40 = CARTESIAN_POINT ( 'NONE',  ( 2.083333378345630500, -2.083333378345630500, 0.0000000000000000000 ) ) ;
#41 = CARTESIAN_POINT ( 'NONE',  ( 2.083333378345630500, -2.083333378345630500, 0.0000000000000000000 ) ) ;
#42 = PRODUCT_DEFINITION_FORMATION_WITH_SPECIFIED_SOURCE ( 'ANY', '', #97, .NOT_KNOWN. ) ;
#43 = CARTESIAN_POINT ( 'NONE',  ( 0.0000000000000000000, 0.0000000000000000000, 0.0000000000000000000 ) ) ;
#44 = CARTESIAN_POINT ( 'NONE',  ( -2.551347553347809800E-016, -2.083333378345630000, 0.0000000000000000000 ) ) ;
#45 = VECTOR ( 'NONE', #152, 1000.000000000000000 ) ;
#46 = MANIFOLD_SOLID_BREP ( 'Imported1', #267 ) ;
#47 = DIRECTION ( 'NONE',  ( 1.734723475976810100E-020, 3.407667765548950100E-037, 1.000000000000000000 ) ) ;
#48 = CC_DESIGN_PERSON_AND_ORGANIZATION_ASSIGNMENT ( #17, #52, ( #97 ) ) ;
#49 = ORIENTED_EDGE ( 'NONE', *, *, #226, .T. ) ;
#50 = VERTEX_POINT ( 'NONE', #282 ) ;
#51 = EDGE_CURVE ( 'NONE', #173, #14, #283, .T. ) ;
#52 = PERSON_AND_ORGANIZATION_ROLE ( 'design_owner' ) ;
#53 = CARTESIAN_POINT ( 'NONE',  ( 1.913510623667739900E-016, 0.0000000000000000000, -0.0008664250570321650000 ) ) ;
#54 = CARTESIAN_POINT ( 'NONE',  ( 0.0000000000000000000, 0.0000000000000000000, 0.0000000000000000000 ) ) ;
#55 =( NAMED_UNIT ( * ) PLANE_ANGLE_UNIT ( ) SI_UNIT ( $, .RADIAN. ) );
#56 = CARTESIAN_POINT ( 'NONE',  ( 0.0000000000000000000, 0.0000000000000000000, 0.0000000000000000000 ) ) ;
#57 = CARTESIAN_POINT ( 'NONE',  ( 0.0000000000000000000, 0.0000000000000000000, 0.0000000000000000000 ) ) ;
#58 = CARTESIAN_POINT ( 'NONE',  ( -6.250000000000000000, 1.653582669167220900E-015, -3.000000000000000000 ) ) ;
#59 = AXIS2_PLACEMENT_3D ( 'NONE', #53, #187, #254 ) ;
#60 = ORIENTED_EDGE ( 'NONE', *, *, #80, .F. ) ;
#61 = CARTESIAN_POINT ( 'NONE',  ( 0.0000000000000000000, 0.0000000000000000000, 0.0000000000000000000 ) ) ;
#62 = CARTESIAN_POINT ( 'NONE',  ( 0.0000000000000000000, 4.166666941949720200, 0.0002888081998735900000 ) ) ;
#63 = CARTESIAN_POINT ( 'NONE',  ( 0.0000000000000000000, 2.083333378345630000, 0.0000000000000000000 ) ) ;
#64 = CARTESIAN_POINT ( 'NONE',  ( -2.083333378345630000, 1.275673776673910100E-016, 0.0000000000000000000 ) ) ;
#65 = EDGE_CURVE ( 'NONE', #262, #27, #71, .T. ) ;
#66 = EDGE_CURVE ( 'NONE', #50, #157, #103, .T. ) ;
#67 = DIRECTION ( 'NONE',  ( 1.000000000000000000, 0.0000000000000000000, 0.0000000000000000000 ) ) ;
#68 = LOCAL_TIME ( 14, 38, 24.00000000000000000, #140 ) ;
#69 = ORIENTED_EDGE ( 'NONE', *, *, #148, .F. ) ;
#70 = DATE_AND_TIME ( #178, #20 ) ;
#71 = B_SPLINE_CURVE_WITH_KNOTS ( 'NONE', 3,
 ( #43, #130, #261, #213 ),
 .UNSPECIFIED., .F., .F.,
 ( 4, 4 ),
 ( 0.0000000000000000000, 1.000000000000000000 ),
 .UNSPECIFIED. ) ;
#72 = ADVANCED_BREP_SHAPE_REPRESENTATION ( 'Web Model 66751', ( #46, #95 ), #270 ) ;
#73 = ORGANIZATION ( 'UNSPECIFIED', 'UNSPECIFIED', '' ) ;
#74 = ORIENTED_EDGE ( 'NONE', *, *, #65, .T. ) ;
#75 = ADVANCED_FACE ( 'NONE', ( #221 ), #222, .T. ) ;
#76 = CARTESIAN_POINT ( 'NONE',  ( 4.166666941949721100, 4.166666941949721100, 0.0002888081998735900000 ) ) ;
#77 = CARTESIAN_POINT ( 'NONE',  ( 0.0000000000000000000, 0.0000000000000000000, 0.0000000000000000000 ) ) ;
#78 = ORIENTED_EDGE ( 'NONE', *, *, #198, .T. ) ;
#79 = PLANE ( 'NONE',  #238 ) ;
#80 = EDGE_CURVE ( 'NONE', #27, #157, #99, .T. ) ;
#81 = DATE_TIME_ROLE ( 'classification_date' ) ;
#82 = CARTESIAN_POINT ( 'NONE',  ( -12.95400000000000100, 0.0000000000000000000, -3.000000000000000000 ) ) ;
#83 = APPROVAL ( #127, 'UNSPECIFIED' ) ;
#84 = PERSON_AND_ORGANIZATION_ROLE ( 'design_supplier' ) ;
#85 = PERSON_AND_ORGANIZATION ( #175, #73 ) ;
#86 = CARTESIAN_POINT ( 'NONE',  ( 2.083333378345630000, -3.827021330021719900E-016, 0.0000000000000000000 ) ) ;
#87 = CARTESIAN_POINT ( 'NONE',  ( 0.0000000000000000000, 0.0000000000000000000, 0.0000000000000000000 ) ) ;
#88 = CARTESIAN_POINT ( 'NONE',  ( 0.0000000000000000000, 0.0000000000000000000, 0.0000000000000000000 ) ) ;
#89 = CC_DESIGN_APPROVAL ( #195, ( #42 ) ) ;
#90 = PERSON_AND_ORGANIZATION ( #175, #73 ) ;
#91 = CARTESIAN_POINT ( 'NONE',  ( -5.102695333571819700E-016, -4.166666941949720200, 0.0002888081998735900000 ) ) ;
#92 = CARTESIAN_POINT ( 'NONE',  ( -4.166666941949720200, 2.551347666785909900E-016, 0.0002888081998735900000 ) ) ;
#93 = ORIENTED_EDGE ( 'NONE', *, *, #158, .T. ) ;
#94 = CARTESIAN_POINT ( 'NONE',  ( 4.166666941949720200, -7.654043000357729600E-016, 0.0002888081998735900000 ) ) ;
#95 = AXIS2_PLACEMENT_3D ( 'NONE', #230, #255, #227 ) ;
#96 = CALENDAR_DATE ( 2017, 31, 1 ) ;
#97 = PRODUCT ( 'Web Model 66751', 'Web Model 66751', '', ( #121 ) ) ;
#98 = APPROVAL_PERSON_ORGANIZATION ( #209, #83, #232 ) ;
#99 = CIRCLE ( 'NONE', #174, 6.250000000000000000 ) ;
#100 = AXIS2_PLACEMENT_3D ( 'NONE', #204, #105, #164 ) ;
#101 = CARTESIAN_POINT ( 'NONE',  ( -6.250000000000000000, 3.827021247335479800E-016, -0.0008664250570321659800 ) ) ;
#102 = CARTESIAN_POINT ( 'NONE',  ( -2.083333378345630500, 2.083333378345630500, 0.0000000000000000000 ) ) ;
#103 = LINE ( 'NONE', #58, #45 ) ;
#104 = APPROVAL_STATUS ( 'not_yet_approved' ) ;
#105 = DIRECTION ( 'NONE',  ( 0.0000000000000000000, -0.0000000000000000000, 1.000000000000000000 ) ) ;
#106 = CARTESIAN_POINT ( 'NONE',  ( 0.0000000000000000000, 0.0000000000000000000, 0.0000000000000000000 ) ) ;
#107 = CC_DESIGN_DATE_AND_TIME_ASSIGNMENT ( #37, #15, ( #248 ) ) ;
#108 = CARTESIAN_POINT ( 'NONE',  ( 2.083333378345630000, -3.827021330021719900E-016, 0.0000000000000000000 ) ) ;
#109 = CARTESIAN_POINT ( 'NONE',  ( 0.0000000000000000000, 0.0000000000000000000, 0.0000000000000000000 ) ) ;
#110 = CARTESIAN_POINT ( 'NONE',  ( 0.0000000000000000000, 0.0000000000000000000, 0.0000000000000000000 ) ) ;
#111 = APPROVAL_DATE_TIME ( #129, #83 ) ;
#112 = CARTESIAN_POINT ( 'NONE',  ( 0.0000000000000000000, 4.166666941949720200, 0.0002888081998735900000 ) ) ;
#113 = CC_DESIGN_PERSON_AND_ORGANIZATION_ASSIGNMENT ( #90, #186, ( #42 ) ) ;
#114 = ORIENTED_EDGE ( 'NONE', *, *, #51, .F. ) ;
#115 = APPROVAL_PERSON_ORGANIZATION ( #239, #132, #247 ) ;
#116 = CC_DESIGN_PERSON_AND_ORGANIZATION_ASSIGNMENT ( #163, #84, ( #42 ) ) ;
#117 = EDGE_LOOP ( 'NONE', ( #93, #166, #60, #206, #114 ) ) ;
#118 = CALENDAR_DATE ( 2017, 31, 1 ) ;
#119 = CYLINDRICAL_SURFACE ( 'NONE', #176, 6.250000000000000000 ) ;
#120 = LOCAL_TIME ( 14, 38, 24.00000000000000000, #223 ) ;
#121 = MECHANICAL_CONTEXT ( 'NONE', #202, 'mechanical' ) ;
#122 =( BOUNDED_SURFACE ( )  B_SPLINE_SURFACE ( 3, 2, ( 
 ( #54, #275, #12, #207, #56, #77, #280, #229, #57 ),
 ( #16, #102, #278, #124, #162, #40, #86, #228, #125 ),
 ( #128, #235, #144, #13, #259, #147, #94, #76, #33 ),
 ( #36, #123, #101, #208, #11, #205, #273, #180, #184 ) ),
 .UNSPECIFIED., .F., .T., .F. ) 
 B_SPLINE_SURFACE_WITH_KNOTS ( ( 4, 4 ),
 ( 3, 2, 2, 2, 3 ),
 ( 0.0000000000000000000, 1.000000000000000000 ),
 ( 0.0000000000000000000, 90.00000000000000000, 180.0000000000000000, 270.0000000000000000, 360.0000000000000000 ),
 .UNSPECIFIED. ) 
 GEOMETRIC_REPRESENTATION_ITEM ( )  RATIONAL_B_SPLINE_SURFACE ( (
 ( 1.000000000000000000, 0.7071067811865480200, 1.000000000000000000, 0.7071067811865480200, 1.000000000000000000, 0.7071067811865480200, 1.000000000000000000, 0.7071067811865480200, 1.000000000000000000),
 ( 1.000000000000000000, 0.7071067811865480200, 1.000000000000000000, 0.7071067811865480200, 1.000000000000000000, 0.7071067811865480200, 1.000000000000000000, 0.7071067811865480200, 1.000000000000000000),
 ( 1.000000000000000000, 0.7071067811865480200, 1.000000000000000000, 0.7071067811865480200, 1.000000000000000000, 0.7071067811865480200, 1.000000000000000000, 0.7071067811865480200, 1.000000000000000000),
 ( 1.000000000000000000, 0.7071067811865480200, 1.000000000000000000, 0.7071067811865480200, 1.000000000000000000, 0.7071067811865480200, 1.000000000000000000, 0.7071067811865480200, 1.000000000000000000) ) ) 
 REPRESENTATION_ITEM ( '' )  SURFACE ( )  );
#123 = CARTESIAN_POINT ( 'NONE',  ( -6.250000000000000000, 6.250000000000000000, -0.0008664250570321658700 ) ) ;
#124 = CARTESIAN_POINT ( 'NONE',  ( -2.083333378345630500, -2.083333378345630500, 0.0000000000000000000 ) ) ;
#125 = CARTESIAN_POINT ( 'NONE',  ( 0.0000000000000000000, 2.083333378345630000, 0.0000000000000000000 ) ) ;
#126 = SECURITY_CLASSIFICATION ( '', '', #234 ) ;
#127 = APPROVAL_STATUS ( 'not_yet_approved' ) ;
#128 = CARTESIAN_POINT ( 'NONE',  ( 0.0000000000000000000, 4.166666941949720200, 0.0002888081998735900000 ) ) ;
#129 = DATE_AND_TIME ( #177, #225 ) ;
#130 = CARTESIAN_POINT ( 'NONE',  ( 0.0000000000000000000, 2.083333378345630000, 0.0000000000000000000 ) ) ;
#131 = CARTESIAN_POINT ( 'NONE',  ( 0.0000000000000000000, 0.0000000000000000000, 0.0000000000000000000 ) ) ;
#132 = APPROVAL ( #104, 'UNSPECIFIED' ) ;
#133 = CARTESIAN_POINT ( 'NONE',  ( 6.250000000000000000, 8.881784197001250400E-016, -3.000000000000000000 ) ) ;
#134 = CARTESIAN_POINT ( 'NONE',  ( -6.250000000000000000, -6.250000000000000000, -0.0008664250570321658700 ) ) ;
#135 = CARTESIAN_POINT ( 'NONE',  ( 1.913510623667739900E-016, 0.0000000000000000000, -0.0008664250570321650000 ) ) ;
#136 = UNCERTAINTY_MEASURE_WITH_UNIT (LENGTH_MEASURE( 1.000000000000000100E-005 ), #182, 'distance_accuracy_value', 'NONE');
#137 = ORIENTED_EDGE ( 'NONE', *, *, #148, .T. ) ;
#138 = B_SPLINE_CURVE_WITH_KNOTS ( 'NONE', 3,
 ( #110, #44, #91, #151 ),
 .UNSPECIFIED., .F., .F.,
 ( 4, 4 ),
 ( 0.0000000000000000000, 1.000000000000000000 ),
 .UNSPECIFIED. ) ;
#139 = CC_DESIGN_PERSON_AND_ORGANIZATION_ASSIGNMENT ( #276, #281, ( #126 ) ) ;
#140 = COORDINATED_UNIVERSAL_TIME_OFFSET ( 5, 0, .BEHIND. ) ;
#141 = ADVANCED_FACE ( 'NONE', ( #30 ), #119, .T. ) ;
#142 = VECTOR ( 'NONE', #149, 1000.000000000000000 ) ;
#143 = CARTESIAN_POINT ( 'NONE',  ( -7.654042494670958600E-016, -6.250000000000000000, -0.0008664250570321650000 ) ) ;
#144 = CARTESIAN_POINT ( 'NONE',  ( -4.166666941949720200, 2.551347666785909900E-016, 0.0002888081998735900000 ) ) ;
#145 = APPROVAL_STATUS ( 'not_yet_approved' ) ;
#146 = PERSON_AND_ORGANIZATION_ROLE ( 'creator' ) ;
#147 = CARTESIAN_POINT ( 'NONE',  ( 4.166666941949721100, -4.166666941949721100, 0.0002888081998735900000 ) ) ;
#148 = EDGE_CURVE ( 'NONE', #50, #173, #3, .T. ) ;
#149 = DIRECTION ( 'NONE',  ( 1.734723475976810100E-020, 3.407667765548950100E-037, 1.000000000000000000 ) ) ;
#150 = ORIENTED_EDGE ( 'NONE', *, *, #80, .T. ) ;
#151 = CARTESIAN_POINT ( 'NONE',  ( -7.654042494670958600E-016, -6.250000000000000000, -0.0008664250570321650000 ) ) ;
#152 = DIRECTION ( 'NONE',  ( 1.734723475976810100E-020, 3.407667765548950100E-037, 1.000000000000000000 ) ) ;
#153 = CARTESIAN_POINT ( 'NONE',  ( 4.166666941949720200, -7.654043000357729600E-016, 0.0002888081998735900000 ) ) ;
#154 = CARTESIAN_POINT ( 'NONE',  ( 6.250000000000000000, -1.148106374200640000E-015, -0.0008664250570321659800 ) ) ;
#155 = EDGE_CURVE ( 'NONE', #256, #14, #251, .T. ) ;
#156 = CARTESIAN_POINT ( 'NONE',  ( 6.250000000000000000, 6.250000000000000000, -0.0008664250570321658700 ) ) ;
#157 = VERTEX_POINT ( 'NONE', #28 ) ;
#158 = EDGE_CURVE ( 'NONE', #173, #50, #196, .T. ) ;
#159 = ORIENTED_EDGE ( 'NONE', *, *, #158, .F. ) ;
#160 = COORDINATED_UNIVERSAL_TIME_OFFSET ( 5, 0, .BEHIND. ) ;
#161 = APPLICATION_PROTOCOL_DEFINITION ( 'international standard', 'config_control_design', 1994, #202 ) ;
#162 = CARTESIAN_POINT ( 'NONE',  ( -2.551347553347809800E-016, -2.083333378345630000, 0.0000000000000000000 ) ) ;
#163 = PERSON_AND_ORGANIZATION ( #175, #73 ) ;
#164 = DIRECTION ( 'NONE',  ( 1.000000000000000000, 0.0000000000000000000, 0.0000000000000000000 ) ) ;
#165 = DIRECTION ( 'NONE',  ( 1.000000000000000000, 0.0000000000000000000, 0.0000000000000000000 ) ) ;
#166 = ORIENTED_EDGE ( 'NONE', *, *, #66, .T. ) ;
#167 = CARTESIAN_POINT ( 'NONE',  ( -2.083333378345630500, -2.083333378345630500, 0.0000000000000000000 ) ) ;
#168 = CARTESIAN_POINT ( 'NONE',  ( 2.083333378345630500, 2.083333378345630500, 0.0000000000000000000 ) ) ;
#169 = CARTESIAN_POINT ( 'NONE',  ( -5.102695333571819700E-016, -4.166666941949720200, 0.0002888081998735900000 ) ) ;
#170 = DIRECTION ( 'NONE',  ( 1.000000000000000000, 0.0000000000000000000, 0.0000000000000000000 ) ) ;
#171 = CARTESIAN_POINT ( 'NONE',  ( -6.250000000000000000, 6.250000000000000000, -0.0008664250570321658700 ) ) ;
#172 = CARTESIAN_POINT ( 'NONE',  ( -7.654042494670959600E-016, -6.250000000000000000, -0.0008664250570321659800 ) ) ;
#173 = VERTEX_POINT ( 'NONE', #285 ) ;
#174 = AXIS2_PLACEMENT_3D ( 'NONE', #135, #243, #219 ) ;
#175 = PERSON ( 'UNSPECIFIED', 'UNSPECIFIED', 'UNSPECIFIED', ('UNSPECIFIED'), ('UNSPECIFIED'), ('UNSPECIFIED') ) ;
#176 = AXIS2_PLACEMENT_3D ( 'NONE', #241, #47, #67 ) ;
#177 = CALENDAR_DATE ( 2017, 31, 1 ) ;
#178 = CALENDAR_DATE ( 2017, 31, 1 ) ;
#179 = ADVANCED_FACE ( 'NONE', ( #188 ), #79, .T. ) ;
#180 = CARTESIAN_POINT ( 'NONE',  ( 6.250000000000000000, 6.250000000000000000, -0.0008664250570321658700 ) ) ;
#181 = DIRECTION ( 'NONE',  ( 0.0000000000000000000, 0.0000000000000000000, -1.000000000000000000 ) ) ;
#182 =( LENGTH_UNIT ( ) NAMED_UNIT ( * ) SI_UNIT ( .MILLI., .METRE. ) );
#183 = CARTESIAN_POINT ( 'NONE',  ( 1.913510623667739900E-016, 0.0000000000000000000, -0.0008664250570321650000 ) ) ;
#184 = CARTESIAN_POINT ( 'NONE',  ( 0.0000000000000000000, 6.250000000000000000, -0.0008664250570321659800 ) ) ;
#185 = DIRECTION ( 'NONE',  ( 1.734723475976810100E-020, 3.407667765548950100E-037, 1.000000000000000000 ) ) ;
#186 = PERSON_AND_ORGANIZATION_ROLE ( 'creator' ) ;
#187 = DIRECTION ( 'NONE',  ( 0.0000000000000000000, -0.0000000000000000000, 1.000000000000000000 ) ) ;
#188 = FACE_OUTER_BOUND ( 'NONE', #264, .T. ) ;
#189 = CARTESIAN_POINT ( 'NONE',  ( 4.166666941949721100, -4.166666941949721100, 0.0002888081998735900000 ) ) ;
#190 = CARTESIAN_POINT ( 'NONE',  ( -2.083333378345630500, 2.083333378345630500, 0.0000000000000000000 ) ) ;
#191 = CARTESIAN_POINT ( 'NONE',  ( -6.250000000000000000, 3.827021247335479800E-016, -0.0008664250570321659800 ) ) ;
#192 = LOCAL_TIME ( 14, 38, 24.00000000000000000, #160 ) ;
#193 = FACE_OUTER_BOUND ( 'NONE', #249, .T. ) ;
#194 = CARTESIAN_POINT ( 'NONE',  ( 4.166666941949721100, 4.166666941949721100, 0.0002888081998735900000 ) ) ;
#195 = APPROVAL ( #145, 'UNSPECIFIED' ) ;
#196 = CIRCLE ( 'NONE', #216, 6.250000000000000000 ) ;
#197 = CC_DESIGN_SECURITY_CLASSIFICATION ( #126, ( #42 ) ) ;
#198 = EDGE_CURVE ( 'NONE', #14, #27, #210, .T. ) ;
#199 = ORIENTED_EDGE ( 'NONE', *, *, #2, .T. ) ;
#200 = PERSON_AND_ORGANIZATION ( #175, #73 ) ;
#201 = AXIS2_PLACEMENT_3D ( 'NONE', #34, #185, #233 ) ;
#202 = APPLICATION_CONTEXT ( 'configuration controlled 3d designs of mechanical parts and assemblies' ) ;
#203 = ORIENTED_EDGE ( 'NONE', *, *, #155, .T. ) ;
#204 = CARTESIAN_POINT ( 'NONE',  ( 1.913510623667739900E-016, 0.0000000000000000000, -0.0008664250570321650000 ) ) ;
#205 = CARTESIAN_POINT ( 'NONE',  ( 6.250000000000000000, -6.250000000000000000, -0.0008664250570321658700 ) ) ;
#206 = ORIENTED_EDGE ( 'NONE', *, *, #198, .F. ) ;
#207 = CARTESIAN_POINT ( 'NONE',  ( 0.0000000000000000000, 0.0000000000000000000, 0.0000000000000000000 ) ) ;
#208 = CARTESIAN_POINT ( 'NONE',  ( -6.250000000000000000, -6.250000000000000000, -0.0008664250570321658700 ) ) ;
#209 = PERSON_AND_ORGANIZATION ( #175, #73 ) ;
#210 = CIRCLE ( 'NONE', #59, 6.250000000000000000 ) ;
#211 = DIRECTION ( 'NONE',  ( -1.000000000000000000, 0.0000000000000000000, -0.0000000000000000000 ) ) ;
#212 = CC_DESIGN_DATE_AND_TIME_ASSIGNMENT ( #70, #81, ( #126 ) ) ;
#213 = CARTESIAN_POINT ( 'NONE',  ( 0.0000000000000000000, 6.250000000000000000, -0.0008664250570321650000 ) ) ;
#214 = ORIENTED_EDGE ( 'NONE', *, *, #226, .F. ) ;
#215 = CARTESIAN_POINT ( 'NONE',  ( -4.166666941949721100, -4.166666941949721100, 0.0002888081998735900000 ) ) ;
#216 = AXIS2_PLACEMENT_3D ( 'NONE', #35, #253, #165 ) ;
#217 = ORIENTED_EDGE ( 'NONE', *, *, #66, .F. ) ;
#218 = CARTESIAN_POINT ( 'NONE',  ( -4.166666941949721100, 4.166666941949721100, 0.0002888081998735900000 ) ) ;
#219 = DIRECTION ( 'NONE',  ( 1.000000000000000000, 0.0000000000000000000, 0.0000000000000000000 ) ) ;
#220 = ORIENTED_EDGE ( 'NONE', *, *, #155, .F. ) ;
#221 = FACE_OUTER_BOUND ( 'NONE', #23, .T. ) ;
#222 =( BOUNDED_SURFACE ( )  B_SPLINE_SURFACE ( 3, 2, ( 
 ( #109, #61, #131, #87, #236, #25, #19, #88, #106 ),
 ( #63, #190, #64, #167, #21, #41, #108, #168, #22 ),
 ( #62, #218, #92, #215, #169, #189, #153, #194, #112 ),
 ( #29, #171, #191, #134, #172, #263, #154, #156, #244 ) ),
 .UNSPECIFIED., .F., .T., .T. ) 
 B_SPLINE_SURFACE_WITH_KNOTS ( ( 4, 4 ),
 ( 3, 2, 2, 2, 3 ),
 ( 0.0000000000000000000, 1.000000000000000000 ),
 ( 0.0000000000000000000, 90.00000000000000000, 180.0000000000000000, 270.0000000000000000, 360.0000000000000000 ),
 .UNSPECIFIED. ) 
 GEOMETRIC_REPRESENTATION_ITEM ( )  RATIONAL_B_SPLINE_SURFACE ( (
 ( 1.000000000000000000, 0.7071067811865480200, 1.000000000000000000, 0.7071067811865480200, 1.000000000000000000, 0.7071067811865480200, 1.000000000000000000, 0.7071067811865480200, 1.000000000000000000),
 ( 1.000000000000000000, 0.7071067811865480200, 1.000000000000000000, 0.7071067811865480200, 1.000000000000000000, 0.7071067811865480200, 1.000000000000000000, 0.7071067811865480200, 1.000000000000000000),
 ( 1.000000000000000000, 0.7071067811865480200, 1.000000000000000000, 0.7071067811865480200, 1.000000000000000000, 0.7071067811865480200, 1.000000000000000000, 0.7071067811865480200, 1.000000000000000000),
 ( 1.000000000000000000, 0.7071067811865480200, 1.000000000000000000, 0.7071067811865480200, 1.000000000000000000, 0.7071067811865480200, 1.000000000000000000, 0.7071067811865480200, 1.000000000000000000) ) ) 
 REPRESENTATION_ITEM ( '' )  SURFACE ( )  );
#223 = COORDINATED_UNIVERSAL_TIME_OFFSET ( 5, 0, .BEHIND. ) ;
#224 = APPROVAL_DATE_TIME ( #252, #195 ) ;
#225 = LOCAL_TIME ( 14, 38, 24.00000000000000000, #245 ) ;
#226 = EDGE_CURVE ( 'NONE', #157, #256, #246, .T. ) ;
#227 = DIRECTION ( 'NONE',  ( 1.000000000000000000, 0.0000000000000000000, 0.0000000000000000000 ) ) ;
#228 = CARTESIAN_POINT ( 'NONE',  ( 2.083333378345630500, 2.083333378345630500, 0.0000000000000000000 ) ) ;
#229 = CARTESIAN_POINT ( 'NONE',  ( 0.0000000000000000000, 0.0000000000000000000, 0.0000000000000000000 ) ) ;
#230 = CARTESIAN_POINT ( 'NONE',  ( 0.0000000000000000000, 0.0000000000000000000, 0.0000000000000000000 ) ) ;
#231 = DIRECTION ( 'NONE',  ( 0.0000000000000000000, -0.0000000000000000000, 1.000000000000000000 ) ) ;
#232 = APPROVAL_ROLE ( '' ) ;
#233 = DIRECTION ( 'NONE',  ( 1.000000000000000000, 0.0000000000000000000, 0.0000000000000000000 ) ) ;
#234 = SECURITY_CLASSIFICATION_LEVEL ( 'unclassified' ) ;
#235 = CARTESIAN_POINT ( 'NONE',  ( -4.166666941949721100, 4.166666941949721100, 0.0002888081998735900000 ) ) ;
#236 = CARTESIAN_POINT ( 'NONE',  ( 0.0000000000000000000, 0.0000000000000000000, 0.0000000000000000000 ) ) ;
#237 = CARTESIAN_POINT ( 'NONE',  ( 0.0000000000000000000, 6.250000000000000000, -0.0008664250570321650000 ) ) ;
#238 = AXIS2_PLACEMENT_3D ( 'NONE', #82, #181, #211 ) ;
#239 = PERSON_AND_ORGANIZATION ( #175, #73 ) ;
#240 = CYLINDRICAL_SURFACE ( 'NONE', #201, 6.250000000000000000 ) ;
#241 = CARTESIAN_POINT ( 'NONE',  ( 0.0000000000000000000, 8.881784197001250400E-016, -3.000000000000000000 ) ) ;
#242 = CARTESIAN_POINT ( 'NONE',  ( 1.913510623667739900E-016, 0.0000000000000000000, -3.000000000000000000 ) ) ;
#243 = DIRECTION ( 'NONE',  ( 0.0000000000000000000, -0.0000000000000000000, 1.000000000000000000 ) ) ;
#244 = CARTESIAN_POINT ( 'NONE',  ( 0.0000000000000000000, 6.250000000000000000, -0.0008664250570321659800 ) ) ;
#245 = COORDINATED_UNIVERSAL_TIME_OFFSET ( 5, 0, .BEHIND. ) ;
#246 = CIRCLE ( 'NONE', #100, 6.250000000000000000 ) ;
#247 = APPROVAL_ROLE ( '' ) ;
#248 = PRODUCT_DEFINITION ( 'UNKNOWN', '', #42, #10 ) ;
#249 = EDGE_LOOP ( 'NONE', ( #7, #74, #150, #49 ) ) ;
#250 = SHAPE_DEFINITION_REPRESENTATION ( #257, #72 ) ;
#251 = CIRCLE ( 'NONE', #5, 6.250000000000000000 ) ;
#252 = DATE_AND_TIME ( #96, #68 ) ;
#253 = DIRECTION ( 'NONE',  ( 0.0000000000000000000, -0.0000000000000000000, 1.000000000000000000 ) ) ;
#254 = DIRECTION ( 'NONE',  ( 1.000000000000000000, 0.0000000000000000000, 0.0000000000000000000 ) ) ;
#255 = DIRECTION ( 'NONE',  ( 0.0000000000000000000, 0.0000000000000000000, 1.000000000000000000 ) ) ;
#256 = VERTEX_POINT ( 'NONE', #143 ) ;
#257 = PRODUCT_DEFINITION_SHAPE ( 'NONE', 'NONE',  #248 ) ;
#258 = APPLICATION_CONTEXT ( 'configuration controlled 3d designs of mechanical parts and assemblies' ) ;
#259 = CARTESIAN_POINT ( 'NONE',  ( -5.102695333571819700E-016, -4.166666941949720200, 0.0002888081998735900000 ) ) ;
#260 = CARTESIAN_POINT ( 'NONE',  ( 6.250000000000000000, 0.0000000000000000000, -0.0008664250570321650000 ) ) ;
#261 = CARTESIAN_POINT ( 'NONE',  ( 0.0000000000000000000, 4.166666941949720200, 0.0002888081998735900000 ) ) ;
#262 = VERTEX_POINT ( 'NONE', #9 ) ;
#263 = CARTESIAN_POINT ( 'NONE',  ( 6.250000000000000000, -6.250000000000000000, -0.0008664250570321658700 ) ) ;
#264 = EDGE_LOOP ( 'NONE', ( #159, #69 ) ) ;
#265 = CC_DESIGN_APPROVAL ( #83, ( #248 ) ) ;
#266 = ORIENTED_EDGE ( 'NONE', *, *, #51, .T. ) ;
#267 = CLOSED_SHELL ( 'NONE', ( #75, #271, #272, #179, #141 ) ) ;
#268 = DATE_AND_TIME ( #118, #120 ) ;
#269 = CC_DESIGN_APPROVAL ( #132, ( #126 ) ) ;
#270 =( GEOMETRIC_REPRESENTATION_CONTEXT ( 3 ) GLOBAL_UNCERTAINTY_ASSIGNED_CONTEXT ( ( #136 ) ) GLOBAL_UNIT_ASSIGNED_CONTEXT ( ( #182, #55, #274 ) ) REPRESENTATION_CONTEXT ( 'NONE', 'WORKASPACE' ) );
#271 = ADVANCED_FACE ( 'NONE', ( #38 ), #240, .T. ) ;
#272 = ADVANCED_FACE ( 'NONE', ( #193 ), #122, .T. ) ;
#273 = CARTESIAN_POINT ( 'NONE',  ( 6.250000000000000000, -1.148106374200640000E-015, -0.0008664250570321659800 ) ) ;
#274 =( NAMED_UNIT ( * ) SI_UNIT ( $, .STERADIAN. ) SOLID_ANGLE_UNIT ( ) );
#275 = CARTESIAN_POINT ( 'NONE',  ( 0.0000000000000000000, 0.0000000000000000000, 0.0000000000000000000 ) ) ;
#276 = PERSON_AND_ORGANIZATION ( #175, #73 ) ;
#277 = CALENDAR_DATE ( 2017, 31, 1 ) ;
#278 = CARTESIAN_POINT ( 'NONE',  ( -2.083333378345630000, 1.275673776673910100E-016, 0.0000000000000000000 ) ) ;
#279 = APPLICATION_PROTOCOL_DEFINITION ( 'international standard', 'config_control_design', 1994, #258 ) ;
#280 = CARTESIAN_POINT ( 'NONE',  ( 0.0000000000000000000, 0.0000000000000000000, 0.0000000000000000000 ) ) ;
#281 = PERSON_AND_ORGANIZATION_ROLE ( 'classification_officer' ) ;
#282 = CARTESIAN_POINT ( 'NONE',  ( -6.250000000000000000, 1.653582669167220900E-015, -3.000000000000000000 ) ) ;
#283 = LINE ( 'NONE', #133, #142 ) ;
#284 = CC_DESIGN_PERSON_AND_ORGANIZATION_ASSIGNMENT ( #85, #146, ( #248 ) ) ;
#285 = CARTESIAN_POINT ( 'NONE',  ( 6.250000000000000000, 0.0000000000000000000, -3.000000000000000000 ) ) ;
ENDSEC;
END-ISO-10303-21;
