ISO-10303-21;
HEADER;
FILE_DESCRIPTION (( 'STEP AP203' ),
    '1' );
FILE_NAME ('20123-E0W.STEP',
    '2015-06-08T17:21:26',
    ( 'Admin' ),
    ( '' ),
    'SwSTEP 2.0',
    'SolidWorks 2014',
    '' );
FILE_SCHEMA (( 'CONFIG_CONTROL_DESIGN' ));
ENDSEC;

DATA;
#1 = CARTESIAN_POINT ( 'NONE',  ( 0.0000000000000000000, -2.086182306196167600E-016, -0.8785786437626936800 ) ) ;
#2 = ADVANCED_BREP_SHAPE_REPRESENTATION ( '20123-E0W', ( #24, #194 ), #245 ) ;
#3 = ORIENTED_EDGE ( 'NONE', *, *, #206, .F. ) ;
#4 = CARTESIAN_POINT ( 'NONE',  ( 0.0000000000000000000, 2.225030145482260800E-013, -1817.954999999999900 ) ) ;
#5 = CONICAL_SURFACE ( 'NONE', #44, 12.69999999999999900, 0.7853981633982526400 ) ;
#6 = APPROVAL ( #179, 'UNSPECIFIED' ) ;
#7 = VERTEX_POINT ( 'NONE', #291 ) ;
#8 = CALENDAR_DATE ( 2015, 8, 6 ) ;
#9 = AXIS2_PLACEMENT_3D ( 'NONE', #210, #278, #100 ) ;
#10 = ORIENTED_EDGE ( 'NONE', *, *, #37, .T. ) ;
#11 = PRODUCT ( '20123-E0W', '20123-E0W', '', ( #188 ) ) ;
#12 = CARTESIAN_POINT ( 'NONE',  ( 0.0000000000000000000, -7.765981944379657600E-016, 0.9766459744846539600 ) ) ;
#13 = DIRECTION ( 'NONE',  ( 0.0000000000000000000, -3.061515884555943100E-016, 1.000000000000000000 ) ) ;
#14 = EDGE_CURVE ( 'NONE', #209, #244, #36, .T. ) ;
#15 = DIRECTION ( 'NONE',  ( 0.0000000000000000000, 1.000000000000000000, 3.662138373397621700E-016 ) ) ;
#16 = PRODUCT_DEFINITION_FORMATION_WITH_SPECIFIED_SOURCE ( 'ANY', '', #11, .NOT_KNOWN. ) ;
#17 = CC_DESIGN_PERSON_AND_ORGANIZATION_ASSIGNMENT ( #93, #84, ( #16 ) ) ;
#18 = ORIENTED_EDGE ( 'NONE', *, *, #154, .F. ) ;
#19 = ADVANCED_FACE ( 'NONE', ( #21 ), #232, .T. ) ;
#20 = FACE_OUTER_BOUND ( 'NONE', #246, .T. ) ;
#21 = FACE_OUTER_BOUND ( 'NONE', #147, .T. ) ;
#22 = CARTESIAN_POINT ( 'NONE',  ( 0.0000000000000000000, -1.653218577660204700E-016, -1.020000000000001600 ) ) ;
#23 =( NAMED_UNIT ( * ) PLANE_ANGLE_UNIT ( ) SI_UNIT ( $, .RADIAN. ) );
#24 = MANIFOLD_SOLID_BREP ( '20123-001-1-solid1', #203 ) ;
#25 = APPROVAL_PERSON_ORGANIZATION ( #256, #191, #266 ) ;
#26 = FACE_OUTER_BOUND ( 'NONE', #168, .T. ) ;
#27 = DIRECTION ( 'NONE',  ( -0.0000000000000000000, 3.061515884555943100E-016, -1.000000000000000000 ) ) ;
#28 = FACE_OUTER_BOUND ( 'NONE', #230, .T. ) ;
#29 = ADVANCED_FACE ( 'NONE', ( #69 ), #142, .T. ) ;
#30 = ORIENTED_EDGE ( 'NONE', *, *, #57, .T. ) ;
#31 = CONICAL_SURFACE ( 'NONE', #117, 12.55857864376269200, 0.7853981633974545000 ) ;
#32 = DIRECTION ( 'NONE',  ( 0.0000000000000000000, 1.000000000000000000, 3.073328992872295900E-016 ) ) ;
#33 = CARTESIAN_POINT ( 'NONE',  ( 1.546641874354783800E-015, 12.55857864376269200, -1.019999999999997800 ) ) ;
#34 = COORDINATED_UNIVERSAL_TIME_OFFSET ( 5, 0, .BEHIND. ) ;
#35 = AXIS2_PLACEMENT_3D ( 'NONE', #22, #13, #158 ) ;
#36 = LINE ( 'NONE', #49, #78 ) ;
#37 = EDGE_CURVE ( 'NONE', #7, #67, #271, .T. ) ;
#38 = DIRECTION ( 'NONE',  ( 1.000000000000000000, 0.0000000000000000000, -0.0000000000000000000 ) ) ;
#39 = CARTESIAN_POINT ( 'NONE',  ( 0.0000000000000000000, 0.0000000000000000000, 0.0000000000000000000 ) ) ;
#40 = ORIENTED_EDGE ( 'NONE', *, *, #77, .F. ) ;
#41 = CALENDAR_DATE ( 2015, 8, 6 ) ;
#42 = AXIS2_PLACEMENT_3D ( 'NONE', #12, #87, #163 ) ;
#43 = CARTESIAN_POINT ( 'NONE',  ( 0.0000000000000000000, -1.653218577660209100E-016, -1.020000000000000000 ) ) ;
#44 = AXIS2_PLACEMENT_3D ( 'NONE', #82, #123, #103 ) ;
#45 = PERSON_AND_ORGANIZATION ( #131, #225 ) ;
#46 = CC_DESIGN_APPROVAL ( #191, ( #16 ) ) ;
#47 = FACE_OUTER_BOUND ( 'NONE', #107, .T. ) ;
#48 = CIRCLE ( 'NONE', #42, 12.55857864376268700 ) ;
#49 = CARTESIAN_POINT ( 'NONE',  ( 1.555301434917138400E-015, -12.69999999999999900, 0.8352246182475643300 ) ) ;
#50 = LOCAL_TIME ( 13, 21, 26.00000000000000000, #240 ) ;
#51 = CARTESIAN_POINT ( 'NONE',  ( 0.0000000000000000000, 2.225030145482260800E-013, -1817.954999999999900 ) ) ;
#52 = SECURITY_CLASSIFICATION ( '', '', #297 ) ;
#53 = ORIENTED_EDGE ( 'NONE', *, *, #121, .F. ) ;
#54 = AXIS2_PLACEMENT_3D ( 'NONE', #61, #71, #91 ) ;
#55 = CARTESIAN_POINT ( 'NONE',  ( 0.0000000000000000000, 12.69999999999999900, 0.8352246182475721000 ) ) ;
#56 = AXIS2_PLACEMENT_3D ( 'NONE', #4, #298, #153 ) ;
#57 = EDGE_CURVE ( 'NONE', #86, #269, #205, .T. ) ;
#58 = ADVANCED_FACE ( 'NONE', ( #26 ), #262, .T. ) ;
#59 = APPLICATION_CONTEXT ( 'configuration controlled 3d designs of mechanical parts and assemblies' ) ;
#60 = DIRECTION ( 'NONE',  ( -0.0000000000000000000, 3.061515884555943100E-016, -1.000000000000000000 ) ) ;
#61 = CARTESIAN_POINT ( 'NONE',  ( 0.0000000000000000000, -7.333018215844374500E-016, 0.8352246182475682200 ) ) ;
#62 = DATE_AND_TIME ( #74, #126 ) ;
#63 = DIRECTION ( 'NONE',  ( 0.0000000000000000000, 0.0000000000000000000, 1.000000000000000000 ) ) ;
#64 = COORDINATED_UNIVERSAL_TIME_OFFSET ( 5, 0, .BEHIND. ) ;
#65 = CC_DESIGN_PERSON_AND_ORGANIZATION_ASSIGNMENT ( #260, #268, ( #52 ) ) ;
#66 = AXIS2_PLACEMENT_3D ( 'NONE', #51, #38, #15 ) ;
#67 = VERTEX_POINT ( 'NONE', #198 ) ;
#68 = AXIS2_PLACEMENT_3D ( 'NONE', #139, #287, #292 ) ;
#69 = FACE_OUTER_BOUND ( 'NONE', #140, .T. ) ;
#70 = PERSON_AND_ORGANIZATION ( #131, #225 ) ;
#71 = DIRECTION ( 'NONE',  ( -0.0000000000000000000, 3.061515884555943100E-016, -1.000000000000000000 ) ) ;
#72 = PERSON_AND_ORGANIZATION_ROLE ( 'creator' ) ;
#73 = ORIENTED_EDGE ( 'NONE', *, *, #248, .F. ) ;
#74 = CALENDAR_DATE ( 2015, 8, 6 ) ;
#75 = AXIS2_PLACEMENT_3D ( 'NONE', #43, #193, #212 ) ;
#76 = AXIS2_PLACEMENT_3D ( 'NONE', #150, #111, #167 ) ;
#77 = EDGE_CURVE ( 'NONE', #86, #244, #176, .T. ) ;
#78 = VECTOR ( 'NONE', #120, 999.9999999999998900 ) ;
#79 = CIRCLE ( 'NONE', #108, 12.70000000000000100 ) ;
#80 = CARTESIAN_POINT ( 'NONE',  ( 0.0000000000000000000, 2.225030145482260800E-013, -1817.954999999999900 ) ) ;
#81 = APPLICATION_PROTOCOL_DEFINITION ( 'international standard', 'config_control_design', 1994, #275 ) ;
#82 = CARTESIAN_POINT ( 'NONE',  ( 0.0000000000000000000, -7.333018215844374500E-016, 0.8352246182475682200 ) ) ;
#83 = APPROVAL_ROLE ( '' ) ;
#84 = PERSON_AND_ORGANIZATION_ROLE ( 'design_supplier' ) ;
#85 = APPROVAL_PERSON_ORGANIZATION ( #45, #211, #221 ) ;
#86 = VERTEX_POINT ( 'NONE', #128 ) ;
#87 = DIRECTION ( 'NONE',  ( -0.0000000000000000000, 3.061515884555943100E-016, -1.000000000000000000 ) ) ;
#88 = FACE_OUTER_BOUND ( 'NONE', #160, .T. ) ;
#89 = AXIS2_PLACEMENT_3D ( 'NONE', #80, #286, #283 ) ;
#90 = EDGE_CURVE ( 'NONE', #106, #267, #226, .T. ) ;
#91 = DIRECTION ( 'NONE',  ( 0.0000000000000000000, 1.000000000000000000, 3.073328992872296400E-016 ) ) ;
#92 = PERSON_AND_ORGANIZATION ( #131, #225 ) ;
#93 = PERSON_AND_ORGANIZATION ( #131, #225 ) ;
#94 =( NAMED_UNIT ( * ) SI_UNIT ( $, .STERADIAN. ) SOLID_ANGLE_UNIT ( ) );
#95 = COORDINATED_UNIVERSAL_TIME_OFFSET ( 5, 0, .BEHIND. ) ;
#96 = ORIENTED_EDGE ( 'NONE', *, *, #154, .T. ) ;
#97 = SPHERICAL_SURFACE ( 'NONE', #66, 1818.974999999999900 ) ;
#98 = AXIS2_PLACEMENT_3D ( 'NONE', #274, #241, #273 ) ;
#99 = ORIENTED_EDGE ( 'NONE', *, *, #77, .T. ) ;
#100 = DIRECTION ( 'NONE',  ( 0.0000000000000000000, 1.000000000000000000, 3.061515884555943100E-016 ) ) ;
#101 = VECTOR ( 'NONE', #261, 1000.000000000000000 ) ;
#102 = AXIS2_PLACEMENT_3D ( 'NONE', #1, #60, #32 ) ;
#103 = DIRECTION ( 'NONE',  ( 0.0000000000000000000, 1.000000000000000000, 3.073328992872296400E-016 ) ) ;
#104 = CALENDAR_DATE ( 2015, 8, 6 ) ;
#105 = COORDINATED_UNIVERSAL_TIME_OFFSET ( 5, 0, .BEHIND. ) ;
#106 = VERTEX_POINT ( 'NONE', #270 ) ;
#107 = EDGE_LOOP ( 'NONE', ( #192, #162, #40, #170 ) ) ;
#108 = AXIS2_PLACEMENT_3D ( 'NONE', #219, #195, #229 ) ;
#109 = CIRCLE ( 'NONE', #102, 12.70000000000000100 ) ;
#110 = CC_DESIGN_PERSON_AND_ORGANIZATION_ASSIGNMENT ( #113, #72, ( #265 ) ) ;
#111 = DIRECTION ( 'NONE',  ( -0.0000000000000000000, 3.061515884555943100E-016, -1.000000000000000000 ) ) ;
#112 = CYLINDRICAL_SURFACE ( 'NONE', #75, 12.69999999999999900 ) ;
#113 = PERSON_AND_ORGANIZATION ( #131, #225 ) ;
#114 = ORIENTED_EDGE ( 'NONE', *, *, #57, .F. ) ;
#115 = CC_DESIGN_APPROVAL ( #211, ( #52 ) ) ;
#116 = ORIENTED_EDGE ( 'NONE', *, *, #207, .F. ) ;
#117 = AXIS2_PLACEMENT_3D ( 'NONE', #255, #294, #172 ) ;
#118 = VECTOR ( 'NONE', #254, 1000.000000000000000 ) ;
#119 = EDGE_CURVE ( 'NONE', #209, #67, #48, .T. ) ;
#120 = DIRECTION ( 'NONE',  ( 8.659560562361898300E-017, -0.7071067811871161200, -0.7071067811859791400 ) ) ;
#121 = EDGE_CURVE ( 'NONE', #244, #267, #202, .T. ) ;
#122 = PERSON_AND_ORGANIZATION_ROLE ( 'creator' ) ;
#123 = DIRECTION ( 'NONE',  ( -0.0000000000000000000, 3.061515884555943100E-016, -1.000000000000000000 ) ) ;
#124 = CC_DESIGN_SECURITY_CLASSIFICATION ( #52, ( #16 ) ) ;
#125 = ORIENTED_EDGE ( 'NONE', *, *, #248, .T. ) ;
#126 = LOCAL_TIME ( 13, 21, 26.00000000000000000, #64 ) ;
#127 = ORIENTED_EDGE ( 'NONE', *, *, #137, .T. ) ;
#128 = CARTESIAN_POINT ( 'NONE',  ( 0.0000000000000000000, 12.69999999999999900, 0.8352246182475721000 ) ) ;
#129 = VECTOR ( 'NONE', #300, 999.9999999999998900 ) ;
#130 = VECTOR ( 'NONE', #216, 999.9999999999998900 ) ;
#131 = PERSON ( 'UNSPECIFIED', 'UNSPECIFIED', 'UNSPECIFIED', ('UNSPECIFIED'), ('UNSPECIFIED'), ('UNSPECIFIED') ) ;
#132 = DATE_AND_TIME ( #41, #231 ) ;
#133 = DIRECTION ( 'NONE',  ( 8.659560562354988300E-017, 0.7071067811865516800, 0.7071067811865434600 ) ) ;
#134 = ORIENTED_EDGE ( 'NONE', *, *, #284, .F. ) ;
#135 = CARTESIAN_POINT ( 'NONE',  ( 1.555301434917138400E-015, -12.69999999999999900, -1.020000000000004000 ) ) ;
#136 = ORIENTED_EDGE ( 'NONE', *, *, #272, .F. ) ;
#137 = EDGE_CURVE ( 'NONE', #67, #86, #144, .T. ) ;
#138 = AXIS2_PLACEMENT_3D ( 'NONE', #161, #27, #149 ) ;
#139 = CARTESIAN_POINT ( 'NONE',  ( 0.0000000000000000000, -1.653218577660204700E-016, -1.020000000000001600 ) ) ;
#140 = EDGE_LOOP ( 'NONE', ( #136, #10, #252 ) ) ;
#141 = AXIS2_PLACEMENT_3D ( 'NONE', #279, #173, #180 ) ;
#142 = SPHERICAL_SURFACE ( 'NONE', #56, 1818.974999999999900 ) ;
#143 = ADVANCED_FACE ( 'NONE', ( #204 ), #112, .T. ) ;
#144 = LINE ( 'NONE', #55, #129 ) ;
#145 = APPLICATION_PROTOCOL_DEFINITION ( 'international standard', 'config_control_design', 1994, #59 ) ;
#146 = ORIENTED_EDGE ( 'NONE', *, *, #293, .T. ) ;
#147 = EDGE_LOOP ( 'NONE', ( #197, #152 ) ) ;
#148 = AXIS2_PLACEMENT_3D ( 'NONE', #264, #249, #227 ) ;
#149 = DIRECTION ( 'NONE',  ( 0.0000000000000000000, 1.000000000000000000, 3.073328992872296400E-016 ) ) ;
#150 = CARTESIAN_POINT ( 'NONE',  ( 0.0000000000000000000, -7.765981944379657600E-016, 0.9766459744846539600 ) ) ;
#151 = AXIS2_PLACEMENT_3D ( 'NONE', #190, #224, #185 ) ;
#152 = ORIENTED_EDGE ( 'NONE', *, *, #207, .T. ) ;
#153 = DIRECTION ( 'NONE',  ( 0.0000000000000000000, 1.000000000000000000, 3.662138373397621700E-016 ) ) ;
#154 = EDGE_CURVE ( 'NONE', #267, #269, #109, .T. ) ;
#155 = EDGE_LOOP ( 'NONE', ( #259, #189, #3 ) ) ;
#156 = CONICAL_SURFACE ( 'NONE', #54, 12.69999999999999900, 0.7853981633982526400 ) ;
#157 = LOCAL_TIME ( 13, 21, 26.00000000000000000, #105 ) ;
#158 = DIRECTION ( 'NONE',  ( 0.0000000000000000000, -1.000000000000000000, -3.107937555406664100E-016 ) ) ;
#159 = DATE_TIME_ROLE ( 'classification_date' ) ;
#160 = EDGE_LOOP ( 'NONE', ( #175, #282, #281, #96 ) ) ;
#161 = CARTESIAN_POINT ( 'NONE',  ( 0.0000000000000000000, -1.653218577660209100E-016, -1.020000000000000000 ) ) ;
#162 = ORIENTED_EDGE ( 'NONE', *, *, #14, .T. ) ;
#163 = DIRECTION ( 'NONE',  ( 0.0000000000000000000, 1.000000000000000000, 3.107937555406665600E-016 ) ) ;
#164 = ADVANCED_FACE ( 'NONE', ( #223 ), #97, .T. ) ;
#165 = ADVANCED_FACE ( 'NONE', ( #28 ), #217, .T. ) ;
#166 = PERSON_AND_ORGANIZATION_ROLE ( 'design_owner' ) ;
#167 = DIRECTION ( 'NONE',  ( 0.0000000000000000000, 1.000000000000000000, 3.107937555406665600E-016 ) ) ;
#168 = EDGE_LOOP ( 'NONE', ( #53, #125, #30, #18 ) ) ;
#169 = CC_DESIGN_DATE_AND_TIME_ASSIGNMENT ( #62, #159, ( #52 ) ) ;
#170 = ORIENTED_EDGE ( 'NONE', *, *, #137, .F. ) ;
#171 = VECTOR ( 'NONE', #133, 999.9999999999998900 ) ;
#172 = DIRECTION ( 'NONE',  ( 0.0000000000000000000, -1.000000000000000000, -3.107937555406664100E-016 ) ) ;
#173 = DIRECTION ( 'NONE',  ( -0.0000000000000000000, 3.061515884555943100E-016, -1.000000000000000000 ) ) ;
#174 = PERSON_AND_ORGANIZATION ( #131, #225 ) ;
#175 = ORIENTED_EDGE ( 'NONE', *, *, #293, .F. ) ;
#176 = CIRCLE ( 'NONE', #151, 12.69999999999999900 ) ;
#177 = CIRCLE ( 'NONE', #148, 1818.974999999999900 ) ;
#178 = CARTESIAN_POINT ( 'NONE',  ( 0.0000000000000000000, 12.69999999999999900, -1.019999999999996200 ) ) ;
#179 = APPROVAL_STATUS ( 'not_yet_approved' ) ;
#180 = DIRECTION ( 'NONE',  ( 0.0000000000000000000, 1.000000000000000000, 3.073328992872296400E-016 ) ) ;
#181 = DATE_AND_TIME ( #247, #50 ) ;
#182 = DATE_AND_TIME ( #104, #251 ) ;
#183 = APPROVAL_DATE_TIME ( #182, #211 ) ;
#184 = VERTEX_POINT ( 'NONE', #33 ) ;
#185 = DIRECTION ( 'NONE',  ( 0.0000000000000000000, 1.000000000000000000, 3.073328992872296400E-016 ) ) ;
#186 = ADVANCED_FACE ( 'NONE', ( #20 ), #156, .T. ) ;
#187 = DATE_AND_TIME ( #8, #157 ) ;
#188 = MECHANICAL_CONTEXT ( 'NONE', #275, 'mechanical' ) ;
#189 = ORIENTED_EDGE ( 'NONE', *, *, #272, .T. ) ;
#190 = CARTESIAN_POINT ( 'NONE',  ( 0.0000000000000000000, -7.333018215844374500E-016, 0.8352246182475682200 ) ) ;
#191 = APPROVAL ( #208, 'UNSPECIFIED' ) ;
#192 = ORIENTED_EDGE ( 'NONE', *, *, #206, .T. ) ;
#193 = DIRECTION ( 'NONE',  ( -0.0000000000000000000, 3.061515884555943100E-016, -1.000000000000000000 ) ) ;
#194 = AXIS2_PLACEMENT_3D ( 'NONE', #39, #63, #295 ) ;
#195 = DIRECTION ( 'NONE',  ( -0.0000000000000000000, 3.061515884555943100E-016, -1.000000000000000000 ) ) ;
#196 = CARTESIAN_POINT ( 'NONE',  ( 0.0000000000000000000, 12.70000000000000100, -0.8785786437626896800 ) ) ;
#197 = ORIENTED_EDGE ( 'NONE', *, *, #238, .T. ) ;
#198 = CARTESIAN_POINT ( 'NONE',  ( 0.0000000000000000000, 12.55857864376729800, 0.9766459744845468200 ) ) ;
#199 = ADVANCED_FACE ( 'NONE', ( #47 ), #5, .T. ) ;
#200 = CIRCLE ( 'NONE', #76, 12.55857864376268700 ) ;
#201 = CC_DESIGN_DATE_AND_TIME_ASSIGNMENT ( #187, #257, ( #265 ) ) ;
#202 = LINE ( 'NONE', #135, #101 ) ;
#203 = CLOSED_SHELL ( 'NONE', ( #165, #143, #199, #164, #19, #29, #186, #58, #228 ) ) ;
#204 = FACE_OUTER_BOUND ( 'NONE', #277, .T. ) ;
#205 = LINE ( 'NONE', #178, #118 ) ;
#206 = EDGE_CURVE ( 'NONE', #67, #209, #200, .T. ) ;
#207 = EDGE_CURVE ( 'NONE', #184, #106, #263, .T. ) ;
#208 = APPROVAL_STATUS ( 'not_yet_approved' ) ;
#209 = VERTEX_POINT ( 'NONE', #289 ) ;
#210 = CARTESIAN_POINT ( 'NONE',  ( 0.0000000000000000000, -1.653218577660207100E-016, -1.020000000000000700 ) ) ;
#211 = APPROVAL ( #296, 'UNSPECIFIED' ) ;
#212 = DIRECTION ( 'NONE',  ( 0.0000000000000000000, 1.000000000000000000, 3.073328992872296400E-016 ) ) ;
#213 = CARTESIAN_POINT ( 'NONE',  ( 1.555301434917138400E-015, -12.69999999999999900, 0.8352246182475643300 ) ) ;
#214 = UNCERTAINTY_MEASURE_WITH_UNIT (LENGTH_MEASURE( 1.000000000000000100E-005 ), #242, 'distance_accuracy_value', 'NONE');
#215 = CARTESIAN_POINT ( 'NONE',  ( 1.537982313792428900E-015, 12.55857864376269200, -1.019999999999997800 ) ) ;
#216 = DIRECTION ( 'NONE',  ( 0.0000000000000000000, -0.7071067811865521200, 0.7071067811865430200 ) ) ;
#217 = CONICAL_SURFACE ( 'NONE', #35, 12.55857864376269200, 0.7853981633974545000 ) ;
#218 = CC_DESIGN_PERSON_AND_ORGANIZATION_ASSIGNMENT ( #92, #166, ( #11 ) ) ;
#219 = CARTESIAN_POINT ( 'NONE',  ( 0.0000000000000000000, -2.086182306196167600E-016, -0.8785786437626936800 ) ) ;
#220 = ORIENTED_EDGE ( 'NONE', *, *, #121, .T. ) ;
#221 = APPROVAL_ROLE ( '' ) ;
#222 = ORIENTED_EDGE ( 'NONE', *, *, #119, .T. ) ;
#223 = FACE_OUTER_BOUND ( 'NONE', #155, .T. ) ;
#224 = DIRECTION ( 'NONE',  ( -0.0000000000000000000, 3.061515884555943100E-016, -1.000000000000000000 ) ) ;
#225 = ORGANIZATION ( 'UNSPECIFIED', 'UNSPECIFIED', '' ) ;
#226 = LINE ( 'NONE', #233, #130 ) ;
#227 = DIRECTION ( 'NONE',  ( -1.224646799147353200E-016, 1.000000000000000000, 0.0000000000000000000 ) ) ;
#228 = ADVANCED_FACE ( 'NONE', ( #88 ), #31, .T. ) ;
#229 = DIRECTION ( 'NONE',  ( 0.0000000000000000000, 1.000000000000000000, 3.073328992872295900E-016 ) ) ;
#230 = EDGE_LOOP ( 'NONE', ( #116, #146, #290, #237 ) ) ;
#231 = LOCAL_TIME ( 13, 21, 26.00000000000000000, #34 ) ;
#232 = PLANE ( 'NONE',  #9 ) ;
#233 = CARTESIAN_POINT ( 'NONE',  ( 0.0000000000000000000, -12.55857864376269200, -1.020000000000005600 ) ) ;
#234 = CARTESIAN_POINT ( 'NONE',  ( 1.555301434917138800E-015, -12.70000000000000300, -0.8785786437626975600 ) ) ;
#235 = APPROVAL_PERSON_ORGANIZATION ( #70, #6, #83 ) ;
#236 = LINE ( 'NONE', #215, #171 ) ;
#237 = ORIENTED_EDGE ( 'NONE', *, *, #90, .F. ) ;
#238 = EDGE_CURVE ( 'NONE', #106, #184, #285, .T. ) ;
#239 = CIRCLE ( 'NONE', #141, 12.69999999999999900 ) ;
#240 = COORDINATED_UNIVERSAL_TIME_OFFSET ( 5, 0, .BEHIND. ) ;
#241 = DIRECTION ( 'NONE',  ( -0.0000000000000000000, 3.061515884555943100E-016, -1.000000000000000000 ) ) ;
#242 =( LENGTH_UNIT ( ) NAMED_UNIT ( * ) SI_UNIT ( .MILLI., .METRE. ) );
#243 = APPROVAL_DATE_TIME ( #181, #6 ) ;
#244 = VERTEX_POINT ( 'NONE', #213 ) ;
#245 =( GEOMETRIC_REPRESENTATION_CONTEXT ( 3 ) GLOBAL_UNCERTAINTY_ASSIGNED_CONTEXT ( ( #214 ) ) GLOBAL_UNIT_ASSIGNED_CONTEXT ( ( #242, #23, #94 ) ) REPRESENTATION_CONTEXT ( 'NONE', 'WORKASPACE' ) );
#246 = EDGE_LOOP ( 'NONE', ( #250, #222, #127, #73 ) ) ;
#247 = CALENDAR_DATE ( 2015, 8, 6 ) ;
#248 = EDGE_CURVE ( 'NONE', #244, #86, #239, .T. ) ;
#249 = DIRECTION ( 'NONE',  ( 1.000000000000000000, 1.224646799147353200E-016, 3.749275628560213600E-032 ) ) ;
#250 = ORIENTED_EDGE ( 'NONE', *, *, #14, .F. ) ;
#251 = LOCAL_TIME ( 13, 21, 26.00000000000000000, #95 ) ;
#252 = ORIENTED_EDGE ( 'NONE', *, *, #119, .F. ) ;
#253 = CC_DESIGN_APPROVAL ( #6, ( #265 ) ) ;
#254 = DIRECTION ( 'NONE',  ( -0.0000000000000000000, 3.061515884555943100E-016, -1.000000000000000000 ) ) ;
#255 = CARTESIAN_POINT ( 'NONE',  ( 0.0000000000000000000, -1.653218577660204700E-016, -1.020000000000001600 ) ) ;
#256 = PERSON_AND_ORGANIZATION ( #131, #225 ) ;
#257 = DATE_TIME_ROLE ( 'creation_date' ) ;
#258 = PRODUCT_DEFINITION_SHAPE ( 'NONE', 'NONE',  #265 ) ;
#259 = ORIENTED_EDGE ( 'NONE', *, *, #37, .F. ) ;
#260 = PERSON_AND_ORGANIZATION ( #131, #225 ) ;
#261 = DIRECTION ( 'NONE',  ( -0.0000000000000000000, 3.061515884555943100E-016, -1.000000000000000000 ) ) ;
#262 = CYLINDRICAL_SURFACE ( 'NONE', #138, 12.69999999999999900 ) ;
#263 = CIRCLE ( 'NONE', #68, 12.55857864376269200 ) ;
#264 = CARTESIAN_POINT ( 'NONE',  ( 0.0000000000000000000, 2.225030145482260800E-013, -1817.954999999999900 ) ) ;
#265 = PRODUCT_DEFINITION ( 'UNKNOWN', '', #16, #301 ) ;
#266 = APPROVAL_ROLE ( '' ) ;
#267 = VERTEX_POINT ( 'NONE', #234 ) ;
#268 = PERSON_AND_ORGANIZATION_ROLE ( 'classification_officer' ) ;
#269 = VERTEX_POINT ( 'NONE', #196 ) ;
#270 = CARTESIAN_POINT ( 'NONE',  ( 0.0000000000000000000, -12.55857864376269200, -1.020000000000005600 ) ) ;
#271 = CIRCLE ( 'NONE', #89, 1818.974999999999900 ) ;
#272 = EDGE_CURVE ( 'NONE', #7, #209, #177, .T. ) ;
#273 = DIRECTION ( 'NONE',  ( 0.0000000000000000000, 1.000000000000000000, 3.107937555406664100E-016 ) ) ;
#274 = CARTESIAN_POINT ( 'NONE',  ( 0.0000000000000000000, -1.653218577660204700E-016, -1.020000000000001600 ) ) ;
#275 = APPLICATION_CONTEXT ( 'configuration controlled 3d designs of mechanical parts and assemblies' ) ;
#276 = CC_DESIGN_PERSON_AND_ORGANIZATION_ASSIGNMENT ( #174, #122, ( #16 ) ) ;
#277 = EDGE_LOOP ( 'NONE', ( #99, #220, #134, #114 ) ) ;
#278 = DIRECTION ( 'NONE',  ( -0.0000000000000000000, 3.061515884555943100E-016, -1.000000000000000000 ) ) ;
#279 = CARTESIAN_POINT ( 'NONE',  ( 0.0000000000000000000, -7.333018215844374500E-016, 0.8352246182475682200 ) ) ;
#280 = APPROVAL_DATE_TIME ( #132, #191 ) ;
#281 = ORIENTED_EDGE ( 'NONE', *, *, #90, .T. ) ;
#282 = ORIENTED_EDGE ( 'NONE', *, *, #238, .F. ) ;
#283 = DIRECTION ( 'NONE',  ( 0.0000000000000000000, 0.0000000000000000000, 1.000000000000000000 ) ) ;
#284 = EDGE_CURVE ( 'NONE', #269, #267, #79, .T. ) ;
#285 = CIRCLE ( 'NONE', #98, 12.55857864376269200 ) ;
#286 = DIRECTION ( 'NONE',  ( -1.000000000000000000, 0.0000000000000000000, 0.0000000000000000000 ) ) ;
#287 = DIRECTION ( 'NONE',  ( -0.0000000000000000000, 3.061515884555943100E-016, -1.000000000000000000 ) ) ;
#288 = SHAPE_DEFINITION_REPRESENTATION ( #258, #2 ) ;
#289 = CARTESIAN_POINT ( 'NONE',  ( 1.537982313792993100E-015, -12.55857864376763400, 0.9766459744845429300 ) ) ;
#290 = ORIENTED_EDGE ( 'NONE', *, *, #284, .T. ) ;
#291 = CARTESIAN_POINT ( 'NONE',  ( 0.0000000000000000000, -2.229989754888357700E-013, 1.020000000000020900 ) ) ;
#292 = DIRECTION ( 'NONE',  ( 0.0000000000000000000, 1.000000000000000000, 3.107937555406664100E-016 ) ) ;
#293 = EDGE_CURVE ( 'NONE', #184, #269, #236, .T. ) ;
#294 = DIRECTION ( 'NONE',  ( 0.0000000000000000000, -3.061515884555943100E-016, 1.000000000000000000 ) ) ;
#295 = DIRECTION ( 'NONE',  ( 1.000000000000000000, 0.0000000000000000000, 0.0000000000000000000 ) ) ;
#296 = APPROVAL_STATUS ( 'not_yet_approved' ) ;
#297 = SECURITY_CLASSIFICATION_LEVEL ( 'unclassified' ) ;
#298 = DIRECTION ( 'NONE',  ( 1.000000000000000000, 0.0000000000000000000, -0.0000000000000000000 ) ) ;
#299 = PRODUCT_RELATED_PRODUCT_CATEGORY ( 'detail', '', ( #11 ) ) ;
#300 = DIRECTION ( 'NONE',  ( 0.0000000000000000000, 0.7071067811871165600, -0.7071067811859785800 ) ) ;
#301 = DESIGN_CONTEXT ( 'detailed design', #59, 'design' ) ;
ENDSEC;
END-ISO-10303-21;
