ISO-10303-21;
HEADER;
FILE_DESCRIPTION (( 'STEP AP203' ),
    '1' );
FILE_NAME ('Web Model 63209_63209.step',
    '2020-10-07T17:40:18',
    ( '' ),
    ( '' ),
    'SwSTEP 2.0',
    'SolidWorks 2018',
    '' );
FILE_SCHEMA (( 'CONFIG_CONTROL_DESIGN' ));
ENDSEC;

DATA;
#1 = DATE_TIME_ROLE ( 'creation_date' ) ;
#2 = PLANE ( 'NONE',  #133 ) ;
#3 = APPROVAL_PERSON_ORGANIZATION ( #149, #98, #136 ) ;
#4 = PERSON_AND_ORGANIZATION ( #56, #126 ) ;
#5 = CC_DESIGN_SECURITY_CLASSIFICATION ( #110, ( #90 ) ) ;
#6 = CALENDAR_DATE ( 2020, 7, 10 ) ;
#7 = DATE_AND_TIME ( #6, #94 ) ;
#8 = PRODUCT ( 'Web Model 63209_63209', 'Web Model 63209_63209', '', ( #15 ) ) ;
#9 =( LENGTH_UNIT ( ) NAMED_UNIT ( * ) SI_UNIT ( .MILLI., .METRE. ) );
#10 = SHAPE_DEFINITION_REPRESENTATION ( #119, #85 ) ;
#11 = VERTEX_POINT ( 'NONE', #59 ) ;
#12 = CC_DESIGN_PERSON_AND_ORGANIZATION_ASSIGNMENT ( #163, #107, ( #8 ) ) ;
#13 = APPROVAL_ROLE ( '' ) ;
#14 = CARTESIAN_POINT ( 'NONE',  ( -20.00000000000000000, 0.0000000000000000000, 3.000000000000000000 ) ) ;
#15 = MECHANICAL_CONTEXT ( 'NONE', #25, 'mechanical' ) ;
#16 = ORIENTED_EDGE ( 'NONE', *, *, #150, .T. ) ;
#17 = CC_DESIGN_DATE_AND_TIME_ASSIGNMENT ( #125, #151, ( #110 ) ) ;
#18 = CIRCLE ( 'NONE', #28, 20.00000000000000000 ) ;
#19 = ORIENTED_EDGE ( 'NONE', *, *, #53, .F. ) ;
#20 = CARTESIAN_POINT ( 'NONE',  ( 0.0000000000000000000, 0.0000000000000000000, 3.000000000000000000 ) ) ;
#21 = APPROVAL_PERSON_ORGANIZATION ( #54, #45, #157 ) ;
#22 = ORIENTED_EDGE ( 'NONE', *, *, #108, .T. ) ;
#23 = LOCAL_TIME ( 13, 40, 18.00000000000000000, #58 ) ;
#24 = CARTESIAN_POINT ( 'NONE',  ( 20.00000000000000000, 2.449293598294706513E-15, 3.000000000000000000 ) ) ;
#25 = APPLICATION_CONTEXT ( 'configuration controlled 3d designs of mechanical parts and assemblies' ) ;
#26 = UNCERTAINTY_MEASURE_WITH_UNIT (LENGTH_MEASURE( 1.000000000000000082E-05 ), #9, 'distance_accuracy_value', 'NONE');
#27 = CC_DESIGN_PERSON_AND_ORGANIZATION_ASSIGNMENT ( #4, #91, ( #90 ) ) ;
#28 = AXIS2_PLACEMENT_3D ( 'NONE', #124, #146, #47 ) ;
#29 = DIRECTION ( 'NONE',  ( 1.000000000000000000, 0.0000000000000000000, 0.0000000000000000000 ) ) ;
#30 = APPLICATION_CONTEXT ( 'configuration controlled 3d designs of mechanical parts and assemblies' ) ;
#31 = DIRECTION ( 'NONE',  ( 0.0000000000000000000, 0.0000000000000000000, 1.000000000000000000 ) ) ;
#32 = VECTOR ( 'NONE', #50, 1000.000000000000000 ) ;
#33 = DATE_AND_TIME ( #44, #128 ) ;
#34 = PERSON_AND_ORGANIZATION ( #56, #126 ) ;
#35 = FACE_OUTER_BOUND ( 'NONE', #122, .T. ) ;
#36 = AXIS2_PLACEMENT_3D ( 'NONE', #38, #81, #171 ) ;
#37 = CARTESIAN_POINT ( 'NONE',  ( 0.0000000000000000000, 0.0000000000000000000, 3.000000000000000000 ) ) ;
#38 = CARTESIAN_POINT ( 'NONE',  ( 0.0000000000000000000, 0.0000000000000000000, 3.000000000000000000 ) ) ;
#39 = ORIENTED_EDGE ( 'NONE', *, *, #53, .T. ) ;
#40 = PRODUCT_DEFINITION ( 'UNKNOWN', '', #90, #162 ) ;
#41 = ORIENTED_EDGE ( 'NONE', *, *, #155, .F. ) ;
#42 = AXIS2_PLACEMENT_3D ( 'NONE', #37, #101, #71 ) ;
#43 = APPROVAL_DATE_TIME ( #114, #161 ) ;
#44 = CALENDAR_DATE ( 2020, 7, 10 ) ;
#45 = APPROVAL ( #93, 'UNSPECIFIED' ) ;
#46 = DIRECTION ( 'NONE',  ( 0.0000000000000000000, 0.0000000000000000000, 1.000000000000000000 ) ) ;
#47 = DIRECTION ( 'NONE',  ( 1.000000000000000000, 0.0000000000000000000, 0.0000000000000000000 ) ) ;
#48 = ADVANCED_FACE ( 'NONE', ( #35 ), #121, .T. ) ;
#49 = FACE_OUTER_BOUND ( 'NONE', #139, .T. ) ;
#50 = DIRECTION ( 'NONE',  ( -0.0000000000000000000, -0.0000000000000000000, -1.000000000000000000 ) ) ;
#51 = APPLICATION_PROTOCOL_DEFINITION ( 'international standard', 'config_control_design', 1994, #30 ) ;
#52 = CYLINDRICAL_SURFACE ( 'NONE', #36, 20.00000000000000000 ) ;
#53 = EDGE_CURVE ( 'NONE', #174, #11, #169, .T. ) ;
#54 = PERSON_AND_ORGANIZATION ( #56, #126 ) ;
#55 = DIRECTION ( 'NONE',  ( 1.000000000000000000, 0.0000000000000000000, 0.0000000000000000000 ) ) ;
#56 = PERSON ( 'UNSPECIFIED', 'UNSPECIFIED', 'UNSPECIFIED', ('UNSPECIFIED'), ('UNSPECIFIED'), ('UNSPECIFIED') ) ;
#57 = PLANE ( 'NONE',  #64 ) ;
#58 = COORDINATED_UNIVERSAL_TIME_OFFSET ( 5, 0, .BEHIND. ) ;
#59 = CARTESIAN_POINT ( 'NONE',  ( -20.00000000000000000, 0.0000000000000000000, 0.0000000000000000000 ) ) ;
#60 = EDGE_CURVE ( 'NONE', #123, #11, #83, .T. ) ;
#61 = APPROVAL_STATUS ( 'not_yet_approved' ) ;
#62 = PERSON_AND_ORGANIZATION ( #56, #126 ) ;
#63 = CALENDAR_DATE ( 2020, 7, 10 ) ;
#64 = AXIS2_PLACEMENT_3D ( 'NONE', #120, #46, #168 ) ;
#65 = CARTESIAN_POINT ( 'NONE',  ( -20.00000000000000000, 0.0000000000000000000, 3.000000000000000000 ) ) ;
#66 = CARTESIAN_POINT ( 'NONE',  ( 0.0000000000000000000, 0.0000000000000000000, 0.0000000000000000000 ) ) ;
#67 = AXIS2_PLACEMENT_3D ( 'NONE', #69, #80, #29 ) ;
#68 = APPROVAL_DATE_TIME ( #33, #45 ) ;
#69 = CARTESIAN_POINT ( 'NONE',  ( 0.0000000000000000000, 0.0000000000000000000, 0.0000000000000000000 ) ) ;
#70 =( NAMED_UNIT ( * ) SI_UNIT ( $, .STERADIAN. ) SOLID_ANGLE_UNIT ( ) );
#71 = DIRECTION ( 'NONE',  ( -1.000000000000000000, 0.0000000000000000000, 0.0000000000000000000 ) ) ;
#72 = PERSON_AND_ORGANIZATION ( #56, #126 ) ;
#73 =( GEOMETRIC_REPRESENTATION_CONTEXT ( 3 ) GLOBAL_UNCERTAINTY_ASSIGNED_CONTEXT ( ( #26 ) ) GLOBAL_UNIT_ASSIGNED_CONTEXT ( ( #9, #156, #70 ) ) REPRESENTATION_CONTEXT ( 'NONE', 'WORKASPACE' ) );
#74 = COORDINATED_UNIVERSAL_TIME_OFFSET ( 5, 0, .BEHIND. ) ;
#75 = AXIS2_PLACEMENT_3D ( 'NONE', #160, #92, #135 ) ;
#76 = EDGE_LOOP ( 'NONE', ( #148, #16 ) ) ;
#77 = AXIS2_PLACEMENT_3D ( 'NONE', #66, #166, #145 ) ;
#78 = CIRCLE ( 'NONE', #77, 20.00000000000000000 ) ;
#79 = ORIENTED_EDGE ( 'NONE', *, *, #60, .T. ) ;
#80 = DIRECTION ( 'NONE',  ( 0.0000000000000000000, 0.0000000000000000000, 1.000000000000000000 ) ) ;
#81 = DIRECTION ( 'NONE',  ( -0.0000000000000000000, -0.0000000000000000000, -1.000000000000000000 ) ) ;
#82 = CC_DESIGN_APPROVAL ( #45, ( #40 ) ) ;
#83 = LINE ( 'NONE', #14, #32 ) ;
#84 = CLOSED_SHELL ( 'NONE', ( #159, #48, #130, #87 ) ) ;
#85 = ADVANCED_BREP_SHAPE_REPRESENTATION ( 'Web Model 63209_63209', ( #113, #67 ), #73 ) ;
#86 = APPLICATION_PROTOCOL_DEFINITION ( 'international standard', 'config_control_design', 1994, #25 ) ;
#87 = ADVANCED_FACE ( 'NONE', ( #131 ), #2, .F. ) ;
#88 = PERSON_AND_ORGANIZATION_ROLE ( 'classification_officer' ) ;
#89 = LINE ( 'NONE', #24, #167 ) ;
#90 = PRODUCT_DEFINITION_FORMATION_WITH_SPECIFIED_SOURCE ( 'ANY', '', #8, .NOT_KNOWN. ) ;
#91 = PERSON_AND_ORGANIZATION_ROLE ( 'creator' ) ;
#92 = DIRECTION ( 'NONE',  ( 0.0000000000000000000, 0.0000000000000000000, 1.000000000000000000 ) ) ;
#93 = APPROVAL_STATUS ( 'not_yet_approved' ) ;
#94 = LOCAL_TIME ( 13, 40, 18.00000000000000000, #111 ) ;
#95 = COORDINATED_UNIVERSAL_TIME_OFFSET ( 5, 0, .BEHIND. ) ;
#96 = CC_DESIGN_PERSON_AND_ORGANIZATION_ASSIGNMENT ( #62, #105, ( #90 ) ) ;
#97 = DIRECTION ( 'NONE',  ( -0.0000000000000000000, -0.0000000000000000000, -1.000000000000000000 ) ) ;
#98 = APPROVAL ( #138, 'UNSPECIFIED' ) ;
#99 = ORIENTED_EDGE ( 'NONE', *, *, #150, .F. ) ;
#100 = ORIENTED_EDGE ( 'NONE', *, *, #155, .T. ) ;
#101 = DIRECTION ( 'NONE',  ( -0.0000000000000000000, -0.0000000000000000000, -1.000000000000000000 ) ) ;
#102 = APPROVAL_DATE_TIME ( #141, #98 ) ;
#103 = EDGE_CURVE ( 'NONE', #123, #117, #173, .T. ) ;
#104 = FACE_OUTER_BOUND ( 'NONE', #76, .T. ) ;
#105 = PERSON_AND_ORGANIZATION_ROLE ( 'design_supplier' ) ;
#106 = CARTESIAN_POINT ( 'NONE',  ( 0.0000000000000000000, 0.0000000000000000000, 0.0000000000000000000 ) ) ;
#107 = PERSON_AND_ORGANIZATION_ROLE ( 'design_owner' ) ;
#108 = EDGE_CURVE ( 'NONE', #11, #174, #78, .T. ) ;
#109 = AXIS2_PLACEMENT_3D ( 'NONE', #20, #116, #55 ) ;
#110 = SECURITY_CLASSIFICATION ( '', '', #112 ) ;
#111 = COORDINATED_UNIVERSAL_TIME_OFFSET ( 5, 0, .BEHIND. ) ;
#112 = SECURITY_CLASSIFICATION_LEVEL ( 'unclassified' ) ;
#113 = MANIFOLD_SOLID_BREP ( 'Extrude1', #84 ) ;
#114 = DATE_AND_TIME ( #118, #23 ) ;
#115 = CC_DESIGN_PERSON_AND_ORGANIZATION_ASSIGNMENT ( #72, #134, ( #40 ) ) ;
#116 = DIRECTION ( 'NONE',  ( 0.0000000000000000000, 0.0000000000000000000, 1.000000000000000000 ) ) ;
#117 = VERTEX_POINT ( 'NONE', #164 ) ;
#118 = CALENDAR_DATE ( 2020, 7, 10 ) ;
#119 = PRODUCT_DEFINITION_SHAPE ( 'NONE', 'NONE',  #40 ) ;
#120 = CARTESIAN_POINT ( 'NONE',  ( 0.0000000000000000000, 0.0000000000000000000, 3.000000000000000000 ) ) ;
#121 = CYLINDRICAL_SURFACE ( 'NONE', #42, 20.00000000000000000 ) ;
#122 = EDGE_LOOP ( 'NONE', ( #41, #132, #79, #22 ) ) ;
#123 = VERTEX_POINT ( 'NONE', #65 ) ;
#124 = CARTESIAN_POINT ( 'NONE',  ( 0.0000000000000000000, 0.0000000000000000000, 3.000000000000000000 ) ) ;
#125 = DATE_AND_TIME ( #129, #153 ) ;
#126 = ORGANIZATION ( 'UNSPECIFIED', 'UNSPECIFIED', '' ) ;
#127 = CC_DESIGN_DATE_AND_TIME_ASSIGNMENT ( #7, #1, ( #40 ) ) ;
#128 = LOCAL_TIME ( 13, 40, 18.00000000000000000, #74 ) ;
#129 = CALENDAR_DATE ( 2020, 7, 10 ) ;
#130 = ADVANCED_FACE ( 'NONE', ( #104 ), #57, .T. ) ;
#131 = FACE_OUTER_BOUND ( 'NONE', #175, .T. ) ;
#132 = ORIENTED_EDGE ( 'NONE', *, *, #103, .F. ) ;
#133 = AXIS2_PLACEMENT_3D ( 'NONE', #106, #31, #137 ) ;
#134 = PERSON_AND_ORGANIZATION_ROLE ( 'creator' ) ;
#135 = DIRECTION ( 'NONE',  ( 1.000000000000000000, 0.0000000000000000000, 0.0000000000000000000 ) ) ;
#136 = APPROVAL_ROLE ( '' ) ;
#137 = DIRECTION ( 'NONE',  ( 1.000000000000000000, 0.0000000000000000000, -0.0000000000000000000 ) ) ;
#138 = APPROVAL_STATUS ( 'not_yet_approved' ) ;
#139 = EDGE_LOOP ( 'NONE', ( #99, #100, #39, #165 ) ) ;
#140 = ORIENTED_EDGE ( 'NONE', *, *, #108, .F. ) ;
#141 = DATE_AND_TIME ( #63, #147 ) ;
#142 = COORDINATED_UNIVERSAL_TIME_OFFSET ( 5, 0, .BEHIND. ) ;
#143 = CC_DESIGN_PERSON_AND_ORGANIZATION_ASSIGNMENT ( #34, #88, ( #110 ) ) ;
#144 = APPROVAL_PERSON_ORGANIZATION ( #158, #161, #13 ) ;
#145 = DIRECTION ( 'NONE',  ( 1.000000000000000000, 0.0000000000000000000, 0.0000000000000000000 ) ) ;
#146 = DIRECTION ( 'NONE',  ( 0.0000000000000000000, 0.0000000000000000000, 1.000000000000000000 ) ) ;
#147 = LOCAL_TIME ( 13, 40, 18.00000000000000000, #95 ) ;
#148 = ORIENTED_EDGE ( 'NONE', *, *, #103, .T. ) ;
#149 = PERSON_AND_ORGANIZATION ( #56, #126 ) ;
#150 = EDGE_CURVE ( 'NONE', #117, #123, #18, .T. ) ;
#151 = DATE_TIME_ROLE ( 'classification_date' ) ;
#152 = PRODUCT_RELATED_PRODUCT_CATEGORY ( 'detail', '', ( #8 ) ) ;
#153 = LOCAL_TIME ( 13, 40, 18.00000000000000000, #142 ) ;
#154 = CC_DESIGN_APPROVAL ( #98, ( #90 ) ) ;
#155 = EDGE_CURVE ( 'NONE', #117, #174, #89, .T. ) ;
#156 =( NAMED_UNIT ( * ) PLANE_ANGLE_UNIT ( ) SI_UNIT ( $, .RADIAN. ) );
#157 = APPROVAL_ROLE ( '' ) ;
#158 = PERSON_AND_ORGANIZATION ( #56, #126 ) ;
#159 = ADVANCED_FACE ( 'NONE', ( #49 ), #52, .T. ) ;
#160 = CARTESIAN_POINT ( 'NONE',  ( 0.0000000000000000000, 0.0000000000000000000, 0.0000000000000000000 ) ) ;
#161 = APPROVAL ( #61, 'UNSPECIFIED' ) ;
#162 = DESIGN_CONTEXT ( 'detailed design', #30, 'design' ) ;
#163 = PERSON_AND_ORGANIZATION ( #56, #126 ) ;
#164 = CARTESIAN_POINT ( 'NONE',  ( 20.00000000000000000, 2.449293598294706513E-15, 3.000000000000000000 ) ) ;
#165 = ORIENTED_EDGE ( 'NONE', *, *, #60, .F. ) ;
#166 = DIRECTION ( 'NONE',  ( 0.0000000000000000000, 0.0000000000000000000, 1.000000000000000000 ) ) ;
#167 = VECTOR ( 'NONE', #97, 1000.000000000000000 ) ;
#168 = DIRECTION ( 'NONE',  ( 1.000000000000000000, 0.0000000000000000000, -0.0000000000000000000 ) ) ;
#169 = CIRCLE ( 'NONE', #75, 20.00000000000000000 ) ;
#170 = CARTESIAN_POINT ( 'NONE',  ( 20.00000000000000000, 2.449293598294706513E-15, 0.0000000000000000000 ) ) ;
#171 = DIRECTION ( 'NONE',  ( -1.000000000000000000, 0.0000000000000000000, 0.0000000000000000000 ) ) ;
#172 = CC_DESIGN_APPROVAL ( #161, ( #110 ) ) ;
#173 = CIRCLE ( 'NONE', #109, 20.00000000000000000 ) ;
#174 = VERTEX_POINT ( 'NONE', #170 ) ;
#175 = EDGE_LOOP ( 'NONE', ( #140, #19 ) ) ;
ENDSEC;
END-ISO-10303-21;
