ISO-10303-21;
HEADER;
FILE_DESCRIPTION (( 'STEP AP214' ),
    '1' );
FILE_NAME ('4463-E0W.STEP',
    '2009-12-21T17:02:30',
    ( ' ' ),
    ( ' ' ),
    'SwSTEP 2.0',
    'SolidWorks 2009',
    '' );
FILE_SCHEMA (( 'AUTOMOTIVE_DESIGN' ));
ENDSEC;

DATA;
#1 = FILL_AREA_STYLE ('',( #48 ) ) ;
#2 = MECHANICAL_DESIGN_GEOMETRIC_PRESENTATION_REPRESENTATION (  '', ( #8 ), #15 ) ;
#3 = SURFACE_STYLE_FILL_AREA ( #1 ) ;
#4 = SURFACE_STYLE_USAGE ( .BOTH. , #5 ) ;
#5 = SURFACE_SIDE_STYLE ('',( #3 ) ) ;
#6 = PRESENTATION_LAYER_ASSIGNMENT (  '', '', ( #8 ) ) ;
#7 = PRESENTATION_STYLE_ASSIGNMENT (( #4 ) ) ;
#8 = STYLED_ITEM ( 'NONE', ( #7 ), #30 ) ;
#9 =( LENGTH_UNIT ( ) NAMED_UNIT ( * ) SI_UNIT ( .MILLI., .METRE. ) );
#10 =( NAMED_UNIT ( * ) PLANE_ANGLE_UNIT ( ) SI_UNIT ( $, .RADIAN. ) );
#11 =( NAMED_UNIT ( * ) SI_UNIT ( $, .STERADIAN. ) SOLID_ANGLE_UNIT ( ) );
#12 = FILL_AREA_STYLE ('',( #22 ) ) ;
#13 = FACE_OUTER_BOUND ( 'NONE', #71, .T. ) ;
#14 =( LENGTH_UNIT ( ) NAMED_UNIT ( * ) SI_UNIT ( .MILLI., .METRE. ) );
#15 =( GEOMETRIC_REPRESENTATION_CONTEXT ( 3 ) GLOBAL_UNCERTAINTY_ASSIGNED_CONTEXT ( ( #16 ) ) GLOBAL_UNIT_ASSIGNED_CONTEXT ( ( #9, #10, #11 ) ) REPRESENTATION_CONTEXT ( 'NONE', 'WORKASPACE' ) );
#16 = UNCERTAINTY_MEASURE_WITH_UNIT (LENGTH_MEASURE( 1.000000000000000100E-005 ), #9, 'distance_accuracy_value', 'NONE');
#17 = MECHANICAL_DESIGN_GEOMETRIC_PRESENTATION_REPRESENTATION (  '', ( #19 ), #94 ) ;
#18 = PRESENTATION_LAYER_ASSIGNMENT (  '', '', ( #19 ) ) ;
#19 = STYLED_ITEM ( 'NONE', ( #24 ), #31 ) ;
#20 = SURFACE_SIDE_STYLE ('',( #21 ) ) ;
#21 = SURFACE_STYLE_FILL_AREA ( #12 ) ;
#22 = FILL_AREA_STYLE_COLOUR ( '', #23 ) ;
#23 = COLOUR_RGB ( '',0.9568627450980391500, 0.9490196078431372100, 0.9607843137254902200 ) ;
#24 = PRESENTATION_STYLE_ASSIGNMENT (( #25 ) ) ;
#25 = SURFACE_STYLE_USAGE ( .BOTH. , #20 ) ;
#26 =( NAMED_UNIT ( * ) PLANE_ANGLE_UNIT ( ) SI_UNIT ( $, .RADIAN. ) );
#27 = EDGE_LOOP ( 'NONE', ( #41, #36 ) ) ;
#28 = ORIENTED_EDGE ( 'NONE', *, *, #63, .T. ) ;
#29 = EDGE_LOOP ( 'NONE', ( #34, #32, #47, #77 ) ) ;
#30 = MANIFOLD_SOLID_BREP ( 'NONE', #40 ) ;
#31 = ADVANCED_FACE ( 'NONE', ( #13 ), #80, .T. ) ;
#32 = ORIENTED_EDGE ( 'NONE', *, *, #42, .T. ) ;
#33 = ORIENTED_EDGE ( 'NONE', *, *, #44, .F. ) ;
#34 = ORIENTED_EDGE ( 'NONE', *, *, #55, .F. ) ;
#35 = ORIENTED_EDGE ( 'NONE', *, *, #55, .T. ) ;
#36 = ORIENTED_EDGE ( 'NONE', *, *, #37, .F. ) ;
#37 = EDGE_CURVE ( 'NONE', #59, #58, #92, .T. ) ;
#38 = ORIENTED_EDGE ( 'NONE', *, *, #39, .F. ) ;
#39 = EDGE_CURVE ( 'NONE', #45, #60, #88, .T. ) ;
#40 = CLOSED_SHELL ( 'NONE', ( #31, #64, #68, #69, #66 ) ) ;
#41 = ORIENTED_EDGE ( 'NONE', *, *, #57, .F. ) ;
#42 = EDGE_CURVE ( 'NONE', #60, #61, #97, .T. ) ;
#43 = ORIENTED_EDGE ( 'NONE', *, *, #44, .T. ) ;
#44 = EDGE_CURVE ( 'NONE', #59, #45, #128, .T. ) ;
#45 = VERTEX_POINT ( 'NONE', #144 ) ;
#46 = ORIENTED_EDGE ( 'NONE', *, *, #72, .F. ) ;
#47 = ORIENTED_EDGE ( 'NONE', *, *, #75, .T. ) ;
#48 = FILL_AREA_STYLE_COLOUR ( '', #70 ) ;
#49 = EDGE_LOOP ( 'NONE', ( #50, #76, #35, #53 ) ) ;
#50 = ORIENTED_EDGE ( 'NONE', *, *, #72, .T. ) ;
#51 = VERTEX_POINT ( 'NONE', #111 ) ;
#52 = ORIENTED_EDGE ( 'NONE', *, *, #37, .T. ) ;
#53 = ORIENTED_EDGE ( 'NONE', *, *, #67, .F. ) ;
#54 = EDGE_LOOP ( 'NONE', ( #33, #52, #28, #65, #38 ) ) ;
#55 = EDGE_CURVE ( 'NONE', #60, #51, #112, .T. ) ;
#56 = ORIENTED_EDGE ( 'NONE', *, *, #57, .T. ) ;
#57 = EDGE_CURVE ( 'NONE', #58, #59, #151, .T. ) ;
#58 = VERTEX_POINT ( 'NONE', #102 ) ;
#59 = VERTEX_POINT ( 'NONE', #103 ) ;
#60 = VERTEX_POINT ( 'NONE', #100 ) ;
#61 = VERTEX_POINT ( 'NONE', #149 ) ;
#62 = ORIENTED_EDGE ( 'NONE', *, *, #63, .F. ) ;
#63 = EDGE_CURVE ( 'NONE', #58, #61, #105, .T. ) ;
#64 = ADVANCED_FACE ( 'NONE', ( #122 ), #101, .T. ) ;
#65 = ORIENTED_EDGE ( 'NONE', *, *, #42, .F. ) ;
#66 = ADVANCED_FACE ( 'NONE', ( #138 ), #163, .F. ) ;
#67 = EDGE_CURVE ( 'NONE', #73, #51, #133, .T. ) ;
#68 = ADVANCED_FACE ( 'NONE', ( #213 ), #188, .T. ) ;
#69 = ADVANCED_FACE ( 'NONE', ( #190 ), #185, .T. ) ;
#70 = COLOUR_RGB ( '',0.7960784313725489700, 0.8235294117647058400, 0.9372549019607843100 ) ;
#71 = EDGE_LOOP ( 'NONE', ( #56, #43, #46, #74, #62 ) ) ;
#72 = EDGE_CURVE ( 'NONE', #73, #45, #235, .T. ) ;
#73 = VERTEX_POINT ( 'NONE', #234 ) ;
#74 = ORIENTED_EDGE ( 'NONE', *, *, #75, .F. ) ;
#75 = EDGE_CURVE ( 'NONE', #61, #73, #221, .T. ) ;
#76 = ORIENTED_EDGE ( 'NONE', *, *, #39, .T. ) ;
#77 = ORIENTED_EDGE ( 'NONE', *, *, #67, .T. ) ;
#78 = DIRECTION ( 'NONE',  ( 1.000000000000000000, 0.0000000000000000000, 0.0000000000000000000 ) ) ;
#79 = CARTESIAN_POINT ( 'NONE',  ( 0.0000000000000000000, 0.0000000000000000000, 1.079066702288028900 ) ) ;
#80 = CYLINDRICAL_SURFACE ( 'NONE', #93, 25.39999999999999900 ) ;
#81 = DIRECTION ( 'NONE',  ( 1.000000000000000000, 0.0000000000000000000, 0.0000000000000000000 ) ) ;
#82 = DIRECTION ( 'NONE',  ( -0.0000000000000000000, -0.0000000000000000000, 1.000000000000000000 ) ) ;
#83 = CARTESIAN_POINT ( 'NONE',  ( 0.0000000000000000000, 0.0000000000000000000, 4.308132045400366600 ) ) ;
#84 = UNCERTAINTY_MEASURE_WITH_UNIT (LENGTH_MEASURE( 1.000000000000000100E-005 ), #14, 'distance_accuracy_value', 'NONE');
#85 = DIRECTION ( 'NONE',  ( -0.0000000000000000000, -0.0000000000000000000, 1.000000000000000000 ) ) ;
#86 = CARTESIAN_POINT ( 'NONE',  ( 0.0000000000000000000, 0.0000000000000000000, -1.915000000000000000 ) ) ;
#87 = AXIS2_PLACEMENT_3D ( 'NONE', #79, #91, #90 ) ;
#88 = CIRCLE ( 'NONE', #87, 25.39999999999999900 ) ;
#89 = AXIS2_PLACEMENT_3D ( 'NONE', #86, #85, #81 ) ;
#90 = DIRECTION ( 'NONE',  ( 1.000000000000000000, 0.0000000000000000000, 0.0000000000000000000 ) ) ;
#91 = DIRECTION ( 'NONE',  ( -0.0000000000000000000, -0.0000000000000000000, 1.000000000000000000 ) ) ;
#92 = CIRCLE ( 'NONE', #89, 25.39999999999999900 ) ;
#93 = AXIS2_PLACEMENT_3D ( 'NONE', #83, #82, #78 ) ;
#94 =( GEOMETRIC_REPRESENTATION_CONTEXT ( 3 ) GLOBAL_UNCERTAINTY_ASSIGNED_CONTEXT ( ( #84 ) ) GLOBAL_UNIT_ASSIGNED_CONTEXT ( ( #14, #26, #95 ) ) REPRESENTATION_CONTEXT ( 'NONE', 'WORKASPACE' ) );
#95 =( NAMED_UNIT ( * ) SI_UNIT ( $, .STERADIAN. ) SOLID_ANGLE_UNIT ( ) );
#96 = AXIS2_PLACEMENT_3D ( 'NONE', #158, #157, #121 ) ;
#97 = CIRCLE ( 'NONE', #96, 25.39999999999999900 ) ;
#98 = AXIS2_PLACEMENT_3D ( 'NONE', #172, #171, #169 ) ;
#99 =( NAMED_UNIT ( * ) SI_UNIT ( $, .STERADIAN. ) SOLID_ANGLE_UNIT ( ) );
#100 = CARTESIAN_POINT ( 'NONE',  ( -3.110500138708844900E-015, -25.40000000000005500, 1.079066702288053800 ) ) ;
#101 = SPHERICAL_SURFACE ( 'NONE', #136, 386.3100000000000000 ) ;
#102 = CARTESIAN_POINT ( 'NONE',  ( 25.39999999999999900, 0.0000000000000000000, -1.915000000000000000 ) ) ;
#103 = CARTESIAN_POINT ( 'NONE',  ( -25.39999999999999900, 3.110500138708838200E-015, -1.915000000000000000 ) ) ;
#104 =( NAMED_UNIT ( * ) PLANE_ANGLE_UNIT ( ) SI_UNIT ( $, .RADIAN. ) );
#105 = LINE ( 'NONE', #168, #167 ) ;
#106 = VECTOR ( 'NONE', #142, 1000.000000000000000 ) ;
#107 = PRESENTATION_LAYER_ASSIGNMENT (  '', '', ( #108 ) ) ;
#108 = STYLED_ITEM ( 'NONE', ( #109 ), #66 ) ;
#109 = PRESENTATION_STYLE_ASSIGNMENT (( #110 ) ) ;
#110 = SURFACE_STYLE_USAGE ( .BOTH. , #145 ) ;
#111 = CARTESIAN_POINT ( 'NONE',  ( 0.0000000000000000000, 2.365388402725612600E-014, 1.915000000000000000 ) ) ;
#112 = CIRCLE ( 'NONE', #124, 386.3100000000000000 ) ;
#113 = DIRECTION ( 'NONE',  ( -1.000000000000000000, 1.224606353822377300E-016, 0.0000000000000000000 ) ) ;
#114 = DIRECTION ( 'NONE',  ( -0.0000000000000000000, -0.0000000000000000000, 1.000000000000000000 ) ) ;
#115 = CARTESIAN_POINT ( 'NONE',  ( 0.0000000000000000000, 0.0000000000000000000, -1.915000000000000000 ) ) ;
#116 = AXIS2_PLACEMENT_3D ( 'NONE', #118, #117, #134 ) ;
#117 = DIRECTION ( 'NONE',  ( 0.0000000000000000000, -0.0000000000000000000, 1.000000000000000000 ) ) ;
#118 = CARTESIAN_POINT ( 'NONE',  ( 0.0000000000000000000, 7.035595861101544000E-016, -1.915000000000000000 ) ) ;
#119 =( NAMED_UNIT ( * ) SI_UNIT ( $, .STERADIAN. ) SOLID_ANGLE_UNIT ( ) );
#120 =( GEOMETRIC_REPRESENTATION_CONTEXT ( 3 ) GLOBAL_UNCERTAINTY_ASSIGNED_CONTEXT ( ( #164 ) ) GLOBAL_UNIT_ASSIGNED_CONTEXT ( ( #165, #104, #119 ) ) REPRESENTATION_CONTEXT ( 'NONE', 'WORKASPACE' ) );
#121 = DIRECTION ( 'NONE',  ( 1.000000000000000000, 0.0000000000000000000, 0.0000000000000000000 ) ) ;
#122 = FACE_OUTER_BOUND ( 'NONE', #49, .T. ) ;
#123 = CARTESIAN_POINT ( 'NONE',  ( 0.0000000000000000000, 0.0000000000000000000, -384.3949999999999800 ) ) ;
#124 = AXIS2_PLACEMENT_3D ( 'NONE', #123, #113, #143 ) ;
#125 = DIRECTION ( 'NONE',  ( 0.0000000000000000000, 1.000000000000000000, 0.0000000000000000000 ) ) ;
#126 = DIRECTION ( 'NONE',  ( -1.000000000000000000, 0.0000000000000000000, 0.0000000000000000000 ) ) ;
#127 = CARTESIAN_POINT ( 'NONE',  ( 0.0000000000000000000, 0.0000000000000000000, -384.3949999999999800 ) ) ;
#128 = LINE ( 'NONE', #166, #106 ) ;
#129 =( LENGTH_UNIT ( ) NAMED_UNIT ( * ) SI_UNIT ( .MILLI., .METRE. ) );
#130 = MECHANICAL_DESIGN_GEOMETRIC_PRESENTATION_REPRESENTATION (  '', ( #153 ), #120 ) ;
#131 =( GEOMETRIC_REPRESENTATION_CONTEXT ( 3 ) GLOBAL_UNCERTAINTY_ASSIGNED_CONTEXT ( ( #162 ) ) GLOBAL_UNIT_ASSIGNED_CONTEXT ( ( #129, #132, #99 ) ) REPRESENTATION_CONTEXT ( 'NONE', 'WORKASPACE' ) );
#132 =( NAMED_UNIT ( * ) PLANE_ANGLE_UNIT ( ) SI_UNIT ( $, .RADIAN. ) );
#133 = CIRCLE ( 'NONE', #173, 386.3100000000000000 ) ;
#134 = DIRECTION ( 'NONE',  ( 1.000000000000000000, 0.0000000000000000000, 0.0000000000000000000 ) ) ;
#135 = MECHANICAL_DESIGN_GEOMETRIC_PRESENTATION_REPRESENTATION (  '', ( #108 ), #131 ) ;
#136 = AXIS2_PLACEMENT_3D ( 'NONE', #127, #126, #125 ) ;
#137 = COLOUR_RGB ( '',0.9568627450980391500, 0.9490196078431372100, 0.9607843137254902200 ) ;
#138 = FACE_OUTER_BOUND ( 'NONE', #27, .T. ) ;
#139 = PRESENTATION_STYLE_ASSIGNMENT (( #140 ) ) ;
#140 = SURFACE_STYLE_USAGE ( .BOTH. , #141 ) ;
#141 = SURFACE_SIDE_STYLE ('',( #154 ) ) ;
#142 = DIRECTION ( 'NONE',  ( -0.0000000000000000000, -0.0000000000000000000, 1.000000000000000000 ) ) ;
#143 = DIRECTION ( 'NONE',  ( -1.224606353822377300E-016, -1.000000000000000000, 0.0000000000000000000 ) ) ;
#144 = CARTESIAN_POINT ( 'NONE',  ( -25.39999999999999900, 3.110500138708838200E-015, 1.079066702288028900 ) ) ;
#145 = SURFACE_SIDE_STYLE ('',( #146 ) ) ;
#146 = SURFACE_STYLE_FILL_AREA ( #147 ) ;
#147 = FILL_AREA_STYLE ('',( #148 ) ) ;
#148 = FILL_AREA_STYLE_COLOUR ( '', #137 ) ;
#149 = CARTESIAN_POINT ( 'NONE',  ( 25.39999999999999900, 0.0000000000000000000, 1.079066702288028900 ) ) ;
#150 = AXIS2_PLACEMENT_3D ( 'NONE', #115, #114, #159 ) ;
#151 = CIRCLE ( 'NONE', #150, 25.39999999999999900 ) ;
#152 = PRESENTATION_LAYER_ASSIGNMENT (  '', '', ( #153 ) ) ;
#153 = STYLED_ITEM ( 'NONE', ( #139 ), #64 ) ;
#154 = SURFACE_STYLE_FILL_AREA ( #155 ) ;
#155 = FILL_AREA_STYLE ('',( #156 ) ) ;
#156 = FILL_AREA_STYLE_COLOUR ( '', #160 ) ;
#157 = DIRECTION ( 'NONE',  ( -0.0000000000000000000, -0.0000000000000000000, 1.000000000000000000 ) ) ;
#158 = CARTESIAN_POINT ( 'NONE',  ( 0.0000000000000000000, 0.0000000000000000000, 1.079066702288028900 ) ) ;
#159 = DIRECTION ( 'NONE',  ( 1.000000000000000000, 0.0000000000000000000, 0.0000000000000000000 ) ) ;
#160 = COLOUR_RGB ( '',0.9568627450980391500, 0.9490196078431372100, 0.9607843137254902200 ) ;
#161 = DIRECTION ( 'NONE',  ( -0.0000000000000000000, -0.0000000000000000000, 1.000000000000000000 ) ) ;
#162 = UNCERTAINTY_MEASURE_WITH_UNIT (LENGTH_MEASURE( 1.000000000000000100E-005 ), #129, 'distance_accuracy_value', 'NONE');
#163 = PLANE ( 'NONE',  #116 ) ;
#164 = UNCERTAINTY_MEASURE_WITH_UNIT (LENGTH_MEASURE( 1.000000000000000100E-005 ), #165, 'distance_accuracy_value', 'NONE');
#165 =( LENGTH_UNIT ( ) NAMED_UNIT ( * ) SI_UNIT ( .MILLI., .METRE. ) );
#166 = CARTESIAN_POINT ( 'NONE',  ( -25.39999999999999900, 3.110500138708838200E-015, 4.308132045400366600 ) ) ;
#167 = VECTOR ( 'NONE', #161, 1000.000000000000000 ) ;
#168 = CARTESIAN_POINT ( 'NONE',  ( 25.39999999999999900, 0.0000000000000000000, 4.308132045400366600 ) ) ;
#169 = DIRECTION ( 'NONE',  ( 1.000000000000000000, 0.0000000000000000000, 0.0000000000000000000 ) ) ;
#170 = CARTESIAN_POINT ( 'NONE',  ( 0.0000000000000000000, 0.0000000000000000000, -384.3949999999999800 ) ) ;
#171 = DIRECTION ( 'NONE',  ( -0.0000000000000000000, -0.0000000000000000000, 1.000000000000000000 ) ) ;
#172 = CARTESIAN_POINT ( 'NONE',  ( 0.0000000000000000000, 0.0000000000000000000, 4.308132045400366600 ) ) ;
#173 = AXIS2_PLACEMENT_3D ( 'NONE', #170, #174, #175 ) ;
#174 = DIRECTION ( 'NONE',  ( 1.000000000000000000, 0.0000000000000000000, 0.0000000000000000000 ) ) ;
#175 = DIRECTION ( 'NONE',  ( 0.0000000000000000000, 0.0000000000000000000, -1.000000000000000000 ) ) ;
#176 = SURFACE_STYLE_FILL_AREA ( #184 ) ;
#177 = SURFACE_STYLE_USAGE ( .BOTH. , #201 ) ;
#178 =( NAMED_UNIT ( * ) PLANE_ANGLE_UNIT ( ) SI_UNIT ( $, .RADIAN. ) );
#179 = COLOUR_RGB ( '',0.9568627450980391500, 0.9490196078431372100, 0.9607843137254902200 ) ;
#180 = FILL_AREA_STYLE_COLOUR ( '', #179 ) ;
#181 = PRESENTATION_LAYER_ASSIGNMENT (  '', '', ( #195 ) ) ;
#182 = UNCERTAINTY_MEASURE_WITH_UNIT (LENGTH_MEASURE( 1.000000000000000100E-005 ), #192, 'distance_accuracy_value', 'NONE');
#183 = UNCERTAINTY_MEASURE_WITH_UNIT (LENGTH_MEASURE( 1.000000000000000100E-005 ), #187, 'distance_accuracy_value', 'NONE');
#184 = FILL_AREA_STYLE ('',( #180 ) ) ;
#185 = CYLINDRICAL_SURFACE ( 'NONE', #98, 25.39999999999999900 ) ;
#186 =( GEOMETRIC_REPRESENTATION_CONTEXT ( 3 ) GLOBAL_UNCERTAINTY_ASSIGNED_CONTEXT ( ( #182 ) ) GLOBAL_UNIT_ASSIGNED_CONTEXT ( ( #192, #178, #208 ) ) REPRESENTATION_CONTEXT ( 'NONE', 'WORKASPACE' ) );
#187 =( LENGTH_UNIT ( ) NAMED_UNIT ( * ) SI_UNIT ( .MILLI., .METRE. ) );
#188 = SPHERICAL_SURFACE ( 'NONE', #212, 386.3100000000000000 ) ;
#189 = COLOUR_RGB ( '',0.9568627450980391500, 0.9490196078431372100, 0.9607843137254902200 ) ;
#190 = FACE_OUTER_BOUND ( 'NONE', #54, .T. ) ;
#191 =( NAMED_UNIT ( * ) PLANE_ANGLE_UNIT ( ) SI_UNIT ( $, .RADIAN. ) );
#192 =( LENGTH_UNIT ( ) NAMED_UNIT ( * ) SI_UNIT ( .MILLI., .METRE. ) );
#193 = CARTESIAN_POINT ( 'NONE',  ( 0.0000000000000000000, 0.0000000000000000000, -384.3949999999999800 ) ) ;
#194 =( NAMED_UNIT ( * ) SI_UNIT ( $, .STERADIAN. ) SOLID_ANGLE_UNIT ( ) );
#195 = STYLED_ITEM ( 'NONE', ( #196 ), #68 ) ;
#196 = PRESENTATION_STYLE_ASSIGNMENT (( #177 ) ) ;
#197 = SURFACE_SIDE_STYLE ('',( #198 ) ) ;
#198 = SURFACE_STYLE_FILL_AREA ( #199 ) ;
#199 = FILL_AREA_STYLE ('',( #200 ) ) ;
#200 = FILL_AREA_STYLE_COLOUR ( '', #189 ) ;
#201 = SURFACE_SIDE_STYLE ('',( #176 ) ) ;
#202 = MECHANICAL_DESIGN_GEOMETRIC_PRESENTATION_REPRESENTATION (  '', ( #205 ), #186 ) ;
#203 = MECHANICAL_DESIGN_GEOMETRIC_PRESENTATION_REPRESENTATION (  '', ( #195 ), #209 ) ;
#204 = PRESENTATION_LAYER_ASSIGNMENT (  '', '', ( #205 ) ) ;
#205 = STYLED_ITEM ( 'NONE', ( #206 ), #69 ) ;
#206 = PRESENTATION_STYLE_ASSIGNMENT (( #207 ) ) ;
#207 = SURFACE_STYLE_USAGE ( .BOTH. , #197 ) ;
#208 =( NAMED_UNIT ( * ) SI_UNIT ( $, .STERADIAN. ) SOLID_ANGLE_UNIT ( ) );
#209 =( GEOMETRIC_REPRESENTATION_CONTEXT ( 3 ) GLOBAL_UNCERTAINTY_ASSIGNED_CONTEXT ( ( #183 ) ) GLOBAL_UNIT_ASSIGNED_CONTEXT ( ( #187, #191, #194 ) ) REPRESENTATION_CONTEXT ( 'NONE', 'WORKASPACE' ) );
#210 = DIRECTION ( 'NONE',  ( 0.0000000000000000000, 1.000000000000000000, 0.0000000000000000000 ) ) ;
#211 = DIRECTION ( 'NONE',  ( -1.000000000000000000, 0.0000000000000000000, 0.0000000000000000000 ) ) ;
#212 = AXIS2_PLACEMENT_3D ( 'NONE', #193, #211, #210 ) ;
#213 = FACE_OUTER_BOUND ( 'NONE', #29, .T. ) ;
#214 = DIRECTION ( 'NONE',  ( 1.000000000000000000, 0.0000000000000000000, 0.0000000000000000000 ) ) ;
#215 = SURFACE_STYLE_USAGE ( .BOTH. , #216 ) ;
#216 = SURFACE_SIDE_STYLE ('',( #217 ) ) ;
#217 = SURFACE_STYLE_FILL_AREA ( #218 ) ;
#218 = FILL_AREA_STYLE ('',( #224 ) ) ;
#219 = DIRECTION ( 'NONE',  ( 0.0000000000000000000, 0.0000000000000000000, 1.000000000000000000 ) ) ;
#220 =( NAMED_UNIT ( * ) SI_UNIT ( $, .STERADIAN. ) SOLID_ANGLE_UNIT ( ) );
#221 = CIRCLE ( 'NONE', #233, 25.39999999999999900 ) ;
#222 =( NAMED_UNIT ( * ) PLANE_ANGLE_UNIT ( ) SI_UNIT ( $, .RADIAN. ) );
#223 =( NAMED_UNIT ( * ) SI_UNIT ( $, .STERADIAN. ) SOLID_ANGLE_UNIT ( ) );
#224 = FILL_AREA_STYLE_COLOUR ( '', #225 ) ;
#225 = COLOUR_RGB ( '',0.7960784313725489700, 0.8235294117647058400, 0.9372549019607843100 ) ;
#226 =( LENGTH_UNIT ( ) NAMED_UNIT ( * ) SI_UNIT ( .MILLI., .METRE. ) );
#227 = DIRECTION ( 'NONE',  ( -0.0000000000000000000, -0.0000000000000000000, 1.000000000000000000 ) ) ;
#228 = UNCERTAINTY_MEASURE_WITH_UNIT (LENGTH_MEASURE( 1.000000000000000100E-005 ), #226, 'distance_accuracy_value', 'NONE');
#229 = MECHANICAL_DESIGN_GEOMETRIC_PRESENTATION_REPRESENTATION (  '', ( #231 ), #237 ) ;
#230 = PRESENTATION_LAYER_ASSIGNMENT (  '', '', ( #231 ) ) ;
#231 = STYLED_ITEM ( 'NONE', ( #232 ), #236 ) ;
#232 = PRESENTATION_STYLE_ASSIGNMENT (( #215 ) ) ;
#233 = AXIS2_PLACEMENT_3D ( 'NONE', #241, #240, #214 ) ;
#234 = CARTESIAN_POINT ( 'NONE',  ( 0.0000000000000000000, 25.40000000000005500, 1.079066702288053800 ) ) ;
#235 = CIRCLE ( 'NONE', #239, 25.39999999999999900 ) ;
#236 = ADVANCED_BREP_SHAPE_REPRESENTATION ( '4463-E0W', ( #30, #245 ), #247 ) ;
#237 =( GEOMETRIC_REPRESENTATION_CONTEXT ( 3 ) GLOBAL_UNCERTAINTY_ASSIGNED_CONTEXT ( ( #228 ) ) GLOBAL_UNIT_ASSIGNED_CONTEXT ( ( #226, #222, #223 ) ) REPRESENTATION_CONTEXT ( 'NONE', 'WORKASPACE' ) );
#238 = CARTESIAN_POINT ( 'NONE',  ( 0.0000000000000000000, 0.0000000000000000000, 1.079066702288028900 ) ) ;
#239 = AXIS2_PLACEMENT_3D ( 'NONE', #238, #227, #248 ) ;
#240 = DIRECTION ( 'NONE',  ( -0.0000000000000000000, -0.0000000000000000000, 1.000000000000000000 ) ) ;
#241 = CARTESIAN_POINT ( 'NONE',  ( 0.0000000000000000000, 0.0000000000000000000, 1.079066702288028900 ) ) ;
#242 = CARTESIAN_POINT ( 'NONE',  ( 0.0000000000000000000, 0.0000000000000000000, 0.0000000000000000000 ) ) ;
#243 =( NAMED_UNIT ( * ) PLANE_ANGLE_UNIT ( ) SI_UNIT ( $, .RADIAN. ) );
#244 = DIRECTION ( 'NONE',  ( 1.000000000000000000, 0.0000000000000000000, 0.0000000000000000000 ) ) ;
#245 = AXIS2_PLACEMENT_3D ( 'NONE', #242, #219, #244 ) ;
#246 =( LENGTH_UNIT ( ) NAMED_UNIT ( * ) SI_UNIT ( .MILLI., .METRE. ) );
#247 =( GEOMETRIC_REPRESENTATION_CONTEXT ( 3 ) GLOBAL_UNCERTAINTY_ASSIGNED_CONTEXT ( ( #249 ) ) GLOBAL_UNIT_ASSIGNED_CONTEXT ( ( #246, #243, #220 ) ) REPRESENTATION_CONTEXT ( 'NONE', 'WORKASPACE' ) );
#248 = DIRECTION ( 'NONE',  ( 1.000000000000000000, 0.0000000000000000000, 0.0000000000000000000 ) ) ;
#249 = UNCERTAINTY_MEASURE_WITH_UNIT (LENGTH_MEASURE( 1.000000000000000100E-005 ), #246, 'distance_accuracy_value', 'NONE');
#250 = PRODUCT_DEFINITION ( 'UNKNOWN', '', #256, #251 ) ;
#251 = PRODUCT_DEFINITION_CONTEXT ( 'detailed design', #258, 'design' ) ;
#252 = PRODUCT_CONTEXT ( 'NONE', #261, 'mechanical' ) ;
#253 = APPLICATION_PROTOCOL_DEFINITION ( 'draft international standard', 'automotive_design', 1998, #261 ) ;
#254 = PRODUCT ( '4463-E0W', '4463-E0W', '', ( #252 ) ) ;
#255 = PRODUCT_RELATED_PRODUCT_CATEGORY ( 'part', '', ( #254 ) ) ;
#256 = PRODUCT_DEFINITION_FORMATION_WITH_SPECIFIED_SOURCE ( 'ANY', '', #254, .NOT_KNOWN. ) ;
#257 = APPLICATION_PROTOCOL_DEFINITION ( 'draft international standard', 'automotive_design', 1998, #258 ) ;
#258 = APPLICATION_CONTEXT ( 'automotive_design' ) ;
#259 = SHAPE_DEFINITION_REPRESENTATION ( #260, #236 ) ;
#260 = PRODUCT_DEFINITION_SHAPE ( 'NONE', 'NONE',  #250 ) ;
#261 = APPLICATION_CONTEXT ( 'automotive_design' ) ;
ENDSEC;
END-ISO-10303-21;
