ISO-10303-21;
HEADER;
FILE_DESCRIPTION (( 'STEP AP203' ),
    '1' );
FILE_NAME ('Web Model 64397MX_15757.step',
    '2020-10-19T15:35:53',
    ( '' ),
    ( '' ),
    'SwSTEP 2.0',
    'SolidWorks 2018',
    '' );
FILE_SCHEMA (( 'CONFIG_CONTROL_DESIGN' ));
ENDSEC;

DATA;
#1 = VERTEX_POINT ( 'NONE', #138 ) ;
#2 = EDGE_CURVE ( 'NONE', #59, #55, #43, .T. ) ;
#3 = CC_DESIGN_APPROVAL ( #229, ( #125 ) ) ;
#4 = ORIENTED_EDGE ( 'NONE', *, *, #145, .T. ) ;
#5 = LOCAL_TIME ( 11, 35, 53.00000000000000000, #112 ) ;
#6 = DIRECTION ( 'NONE',  ( -0.0000000000000000000, -0.0000000000000000000, -1.000000000000000000 ) ) ;
#7 = EDGE_CURVE ( 'NONE', #195, #144, #234, .T. ) ;
#8 = PLANE ( 'NONE',  #61 ) ;
#9 = CALENDAR_DATE ( 2020, 19, 10 ) ;
#10 = CALENDAR_DATE ( 2020, 19, 10 ) ;
#11 = ORIENTED_EDGE ( 'NONE', *, *, #176, .T. ) ;
#12 = AXIS2_PLACEMENT_3D ( 'NONE', #45, #194, #46 ) ;
#13 = VECTOR ( 'NONE', #188, 1000.000000000000000 ) ;
#14 = PERSON ( 'UNSPECIFIED', 'UNSPECIFIED', 'UNSPECIFIED', ('UNSPECIFIED'), ('UNSPECIFIED'), ('UNSPECIFIED') ) ;
#15 = PERSON_AND_ORGANIZATION ( #14, #89 ) ;
#16 = CARTESIAN_POINT ( 'NONE',  ( 6.349999999999998757, 6.350000000000000533, -3.000000000000000000 ) ) ;
#17 = APPROVAL_ROLE ( '' ) ;
#18 = PERSON_AND_ORGANIZATION ( #14, #89 ) ;
#19 = ORIENTED_EDGE ( 'NONE', *, *, #176, .F. ) ;
#20 = SECURITY_CLASSIFICATION_LEVEL ( 'unclassified' ) ;
#21 = EDGE_CURVE ( 'NONE', #1, #147, #214, .T. ) ;
#22 = FACE_OUTER_BOUND ( 'NONE', #102, .T. ) ;
#23 = PLANE ( 'NONE',  #12 ) ;
#24 = UNCERTAINTY_MEASURE_WITH_UNIT (LENGTH_MEASURE( 1.000000000000000082E-05 ), #182, 'distance_accuracy_value', 'NONE');
#25 = PLANE ( 'NONE',  #171 ) ;
#26 = CARTESIAN_POINT ( 'NONE',  ( -6.350000000000000533, -6.350000000000000533, -3.000000000000000000 ) ) ;
#27 = EDGE_CURVE ( 'NONE', #65, #195, #110, .T. ) ;
#28 = DIRECTION ( 'NONE',  ( -0.0000000000000000000, -1.000000000000000000, -0.0000000000000000000 ) ) ;
#29 = VECTOR ( 'NONE', #212, 1000.000000000000000 ) ;
#30 = ORIENTED_EDGE ( 'NONE', *, *, #218, .F. ) ;
#31 = EDGE_CURVE ( 'NONE', #179, #144, #116, .T. ) ;
#32 = LOCAL_TIME ( 11, 35, 53.00000000000000000, #84 ) ;
#33 = DIRECTION ( 'NONE',  ( 1.000000000000000000, 1.365923996832131609E-16, -0.0000000000000000000 ) ) ;
#34 = LINE ( 'NONE', #164, #39 ) ;
#35 = ORIENTED_EDGE ( 'NONE', *, *, #126, .F. ) ;
#36 = PERSON_AND_ORGANIZATION_ROLE ( 'classification_officer' ) ;
#37 = DIRECTION ( 'NONE',  ( 1.000000000000000000, 0.0000000000000000000, -0.0000000000000000000 ) ) ;
#38 = COORDINATED_UNIVERSAL_TIME_OFFSET ( 5, 0, .BEHIND. ) ;
#39 = VECTOR ( 'NONE', #33, 1000.000000000000000 ) ;
#40 = CC_DESIGN_DATE_AND_TIME_ASSIGNMENT ( #174, #76, ( #58 ) ) ;
#41 = AXIS2_PLACEMENT_3D ( 'NONE', #68, #197, #113 ) ;
#42 = CARTESIAN_POINT ( 'NONE',  ( -6.350000000000000533, 6.349999999999998757, 3.000000000000000000 ) ) ;
#43 = LINE ( 'NONE', #106, #207 ) ;
#44 = ADVANCED_FACE ( 'NONE', ( #181 ), #25, .F. ) ;
#45 = CARTESIAN_POINT ( 'NONE',  ( 0.0000000000000000000, 0.0000000000000000000, -3.000000000000000000 ) ) ;
#46 = DIRECTION ( 'NONE',  ( 1.000000000000000000, 0.0000000000000000000, -0.0000000000000000000 ) ) ;
#47 = PERSON_AND_ORGANIZATION ( #14, #89 ) ;
#48 = FACE_OUTER_BOUND ( 'NONE', #160, .T. ) ;
#49 = CARTESIAN_POINT ( 'NONE',  ( 6.349999999999998757, -6.349999999999998757, 3.000000000000000000 ) ) ;
#50 = CARTESIAN_POINT ( 'NONE',  ( 6.349999999999998757, 6.350000000000000533, 3.000000000000000000 ) ) ;
#51 = ORIENTED_EDGE ( 'NONE', *, *, #187, .T. ) ;
#52 = ORIENTED_EDGE ( 'NONE', *, *, #120, .F. ) ;
#53 = DIRECTION ( 'NONE',  ( 1.000000000000000000, 1.365923996832131609E-16, 0.0000000000000000000 ) ) ;
#54 = ADVANCED_BREP_SHAPE_REPRESENTATION ( 'Web Model 64397MX_15757', ( #192, #104 ), #88 ) ;
#55 = VERTEX_POINT ( 'NONE', #63 ) ;
#56 = CC_DESIGN_PERSON_AND_ORGANIZATION_ASSIGNMENT ( #180, #184, ( #125 ) ) ;
#57 = CARTESIAN_POINT ( 'NONE',  ( -6.350000000000000533, -6.350000000000000533, -3.000000000000000000 ) ) ;
#58 = SECURITY_CLASSIFICATION ( '', '', #20 ) ;
#59 = VERTEX_POINT ( 'NONE', #49 ) ;
#60 = DIRECTION ( 'NONE',  ( 1.000000000000000000, 1.365923996832131609E-16, -0.0000000000000000000 ) ) ;
#61 = AXIS2_PLACEMENT_3D ( 'NONE', #231, #108, #53 ) ;
#62 = AXIS2_PLACEMENT_3D ( 'NONE', #75, #148, #37 ) ;
#63 = CARTESIAN_POINT ( 'NONE',  ( 6.349999999999998757, 6.350000000000000533, 3.000000000000000000 ) ) ;
#64 = COORDINATED_UNIVERSAL_TIME_OFFSET ( 5, 0, .BEHIND. ) ;
#65 = VERTEX_POINT ( 'NONE', #42 ) ;
#66 = APPROVAL ( #206, 'UNSPECIFIED' ) ;
#67 = CARTESIAN_POINT ( 'NONE',  ( 6.349999999999998757, 6.350000000000000533, 3.000000000000000000 ) ) ;
#68 = CARTESIAN_POINT ( 'NONE',  ( 6.349999999999998757, -6.349999999999998757, 3.000000000000000000 ) ) ;
#69 = CARTESIAN_POINT ( 'NONE',  ( -6.350000000000000533, -6.350000000000000533, 3.000000000000000000 ) ) ;
#70 = CALENDAR_DATE ( 2020, 19, 10 ) ;
#71 = ORIENTED_EDGE ( 'NONE', *, *, #218, .T. ) ;
#72 = AXIS2_PLACEMENT_3D ( 'NONE', #237, #165, #202 ) ;
#73 = VECTOR ( 'NONE', #101, 1000.000000000000000 ) ;
#74 = ORIENTED_EDGE ( 'NONE', *, *, #126, .T. ) ;
#75 = CARTESIAN_POINT ( 'NONE',  ( 0.0000000000000000000, 0.0000000000000000000, 3.000000000000000000 ) ) ;
#76 = DATE_TIME_ROLE ( 'classification_date' ) ;
#77 = EDGE_LOOP ( 'NONE', ( #134, #107, #52, #128 ) ) ;
#78 = APPROVAL_ROLE ( '' ) ;
#79 = PERSON_AND_ORGANIZATION ( #14, #89 ) ;
#80 = ORIENTED_EDGE ( 'NONE', *, *, #130, .F. ) ;
#81 = SHAPE_DEFINITION_REPRESENTATION ( #99, #54 ) ;
#82 = CARTESIAN_POINT ( 'NONE',  ( -6.350000000000000533, 6.349999999999998757, 3.000000000000000000 ) ) ;
#83 = APPROVAL ( #220, 'UNSPECIFIED' ) ;
#84 = COORDINATED_UNIVERSAL_TIME_OFFSET ( 5, 0, .BEHIND. ) ;
#85 = LINE ( 'NONE', #69, #143 ) ;
#86 = DIRECTION ( 'NONE',  ( -1.000000000000000000, -1.365923996832131609E-16, 0.0000000000000000000 ) ) ;
#87 = VECTOR ( 'NONE', #6, 1000.000000000000000 ) ;
#88 =( GEOMETRIC_REPRESENTATION_CONTEXT ( 3 ) GLOBAL_UNCERTAINTY_ASSIGNED_CONTEXT ( ( #24 ) ) GLOBAL_UNIT_ASSIGNED_CONTEXT ( ( #182, #186, #170 ) ) REPRESENTATION_CONTEXT ( 'NONE', 'WORKASPACE' ) );
#89 = ORGANIZATION ( 'UNSPECIFIED', 'UNSPECIFIED', '' ) ;
#90 = CC_DESIGN_PERSON_AND_ORGANIZATION_ASSIGNMENT ( #163, #136, ( #162 ) ) ;
#91 = APPLICATION_PROTOCOL_DEFINITION ( 'international standard', 'config_control_design', 1994, #133 ) ;
#92 = APPLICATION_CONTEXT ( 'configuration controlled 3d designs of mechanical parts and assemblies' ) ;
#93 = ORIENTED_EDGE ( 'NONE', *, *, #130, .T. ) ;
#94 = CARTESIAN_POINT ( 'NONE',  ( -6.350000000000000533, 6.349999999999998757, -3.000000000000000000 ) ) ;
#95 = DIRECTION ( 'NONE',  ( 0.0000000000000000000, 0.0000000000000000000, 1.000000000000000000 ) ) ;
#96 = CARTESIAN_POINT ( 'NONE',  ( -6.350000000000000533, -6.350000000000000533, 3.000000000000000000 ) ) ;
#97 = LINE ( 'NONE', #16, #13 ) ;
#98 = PERSON_AND_ORGANIZATION ( #14, #89 ) ;
#99 = PRODUCT_DEFINITION_SHAPE ( 'NONE', 'NONE',  #125 ) ;
#100 = ADVANCED_FACE ( 'NONE', ( #123 ), #23, .F. ) ;
#101 = DIRECTION ( 'NONE',  ( -0.0000000000000000000, -1.000000000000000000, -0.0000000000000000000 ) ) ;
#102 = EDGE_LOOP ( 'NONE', ( #11, #80, #30, #146 ) ) ;
#103 = ADVANCED_FACE ( 'NONE', ( #166 ), #8, .F. ) ;
#104 = AXIS2_PLACEMENT_3D ( 'NONE', #204, #95, #221 ) ;
#105 = ADVANCED_FACE ( 'NONE', ( #22 ), #178, .F. ) ;
#106 = CARTESIAN_POINT ( 'NONE',  ( 6.349999999999998757, -6.349999999999998757, 3.000000000000000000 ) ) ;
#107 = ORIENTED_EDGE ( 'NONE', *, *, #31, .F. ) ;
#108 = DIRECTION ( 'NONE',  ( 1.365923996832131609E-16, -1.000000000000000000, 0.0000000000000000000 ) ) ;
#109 = PRODUCT ( 'Web Model 64397MX_15757', 'Web Model 64397MX_15757', '', ( #168 ) ) ;
#110 = LINE ( 'NONE', #82, #159 ) ;
#111 = ORIENTED_EDGE ( 'NONE', *, *, #21, .F. ) ;
#112 = COORDINATED_UNIVERSAL_TIME_OFFSET ( 5, 0, .BEHIND. ) ;
#113 = DIRECTION ( 'NONE',  ( -1.000000000000000000, -1.365923996832131609E-16, 0.0000000000000000000 ) ) ;
#114 = ORIENTED_EDGE ( 'NONE', *, *, #27, .F. ) ;
#115 = CC_DESIGN_APPROVAL ( #83, ( #58 ) ) ;
#116 = LINE ( 'NONE', #122, #87 ) ;
#117 = PERSON_AND_ORGANIZATION_ROLE ( 'creator' ) ;
#118 = LOCAL_TIME ( 11, 35, 53.00000000000000000, #64 ) ;
#119 = ORIENTED_EDGE ( 'NONE', *, *, #145, .F. ) ;
#120 = EDGE_CURVE ( 'NONE', #65, #179, #85, .T. ) ;
#121 = LOCAL_TIME ( 11, 35, 53.00000000000000000, #199 ) ;
#122 = CARTESIAN_POINT ( 'NONE',  ( -6.350000000000000533, -6.350000000000000533, 3.000000000000000000 ) ) ;
#123 = FACE_OUTER_BOUND ( 'NONE', #235, .T. ) ;
#124 = PRODUCT_RELATED_PRODUCT_CATEGORY ( 'detail', '', ( #109 ) ) ;
#125 = PRODUCT_DEFINITION ( 'UNKNOWN', '', #162, #140 ) ;
#126 = EDGE_CURVE ( 'NONE', #55, #65, #230, .T. ) ;
#127 = LINE ( 'NONE', #233, #225 ) ;
#128 = ORIENTED_EDGE ( 'NONE', *, *, #27, .T. ) ;
#129 = APPROVAL_DATE_TIME ( #156, #229 ) ;
#130 = EDGE_CURVE ( 'NONE', #59, #1, #213, .T. ) ;
#131 = CC_DESIGN_APPROVAL ( #66, ( #162 ) ) ;
#132 = PLANE ( 'NONE',  #72 ) ;
#133 = APPLICATION_CONTEXT ( 'configuration controlled 3d designs of mechanical parts and assemblies' ) ;
#134 = ORIENTED_EDGE ( 'NONE', *, *, #7, .T. ) ;
#135 = PLANE ( 'NONE',  #62 ) ;
#136 = PERSON_AND_ORGANIZATION_ROLE ( 'design_supplier' ) ;
#137 = APPROVAL_STATUS ( 'not_yet_approved' ) ;
#138 = CARTESIAN_POINT ( 'NONE',  ( 6.349999999999998757, -6.349999999999998757, -3.000000000000000000 ) ) ;
#139 = ORIENTED_EDGE ( 'NONE', *, *, #21, .T. ) ;
#140 = DESIGN_CONTEXT ( 'detailed design', #133, 'design' ) ;
#141 = APPROVAL_DATE_TIME ( #205, #66 ) ;
#142 = CC_DESIGN_DATE_AND_TIME_ASSIGNMENT ( #149, #185, ( #125 ) ) ;
#143 = VECTOR ( 'NONE', #28, 1000.000000000000000 ) ;
#144 = VERTEX_POINT ( 'NONE', #57 ) ;
#145 = EDGE_CURVE ( 'NONE', #55, #147, #161, .T. ) ;
#146 = ORIENTED_EDGE ( 'NONE', *, *, #31, .T. ) ;
#147 = VERTEX_POINT ( 'NONE', #222 ) ;
#148 = DIRECTION ( 'NONE',  ( 0.0000000000000000000, -0.0000000000000000000, 1.000000000000000000 ) ) ;
#149 = DATE_AND_TIME ( #70, #32 ) ;
#150 = EDGE_LOOP ( 'NONE', ( #139, #119, #173, #93 ) ) ;
#151 = DIRECTION ( 'NONE',  ( -0.0000000000000000000, -0.0000000000000000000, -1.000000000000000000 ) ) ;
#152 = ADVANCED_FACE ( 'NONE', ( #172 ), #132, .F. ) ;
#153 = CC_DESIGN_PERSON_AND_ORGANIZATION_ASSIGNMENT ( #79, #117, ( #162 ) ) ;
#154 = DIRECTION ( 'NONE',  ( 0.0000000000000000000, 0.0000000000000000000, 1.000000000000000000 ) ) ;
#155 = DIRECTION ( 'NONE',  ( -1.000000000000000000, 0.0000000000000000000, 0.0000000000000000000 ) ) ;
#156 = DATE_AND_TIME ( #223, #228 ) ;
#157 = ORIENTED_EDGE ( 'NONE', *, *, #2, .T. ) ;
#158 = APPROVAL_PERSON_ORGANIZATION ( #98, #83, #203 ) ;
#159 = VECTOR ( 'NONE', #224, 1000.000000000000000 ) ;
#160 = EDGE_LOOP ( 'NONE', ( #210, #71, #157, #74 ) ) ;
#161 = LINE ( 'NONE', #67, #217 ) ;
#162 = PRODUCT_DEFINITION_FORMATION_WITH_SPECIFIED_SOURCE ( 'ANY', '', #109, .NOT_KNOWN. ) ;
#163 = PERSON_AND_ORGANIZATION ( #14, #89 ) ;
#164 = CARTESIAN_POINT ( 'NONE',  ( 6.349999999999998757, -6.349999999999998757, 3.000000000000000000 ) ) ;
#165 = DIRECTION ( 'NONE',  ( 1.000000000000000000, 0.0000000000000000000, 0.0000000000000000000 ) ) ;
#166 = FACE_OUTER_BOUND ( 'NONE', #167, .T. ) ;
#167 = EDGE_LOOP ( 'NONE', ( #51, #114, #35, #4 ) ) ;
#168 = MECHANICAL_CONTEXT ( 'NONE', #92, 'mechanical' ) ;
#169 = CC_DESIGN_SECURITY_CLASSIFICATION ( #58, ( #162 ) ) ;
#170 =( NAMED_UNIT ( * ) SI_UNIT ( $, .STERADIAN. ) SOLID_ANGLE_UNIT ( ) );
#171 = AXIS2_PLACEMENT_3D ( 'NONE', #208, #155, #154 ) ;
#172 = FACE_OUTER_BOUND ( 'NONE', #77, .T. ) ;
#173 = ORIENTED_EDGE ( 'NONE', *, *, #2, .F. ) ;
#174 = DATE_AND_TIME ( #196, #5 ) ;
#175 = CARTESIAN_POINT ( 'NONE',  ( 6.349999999999998757, -6.349999999999998757, -3.000000000000000000 ) ) ;
#176 = EDGE_CURVE ( 'NONE', #144, #1, #127, .T. ) ;
#177 = CARTESIAN_POINT ( 'NONE',  ( 6.349999999999998757, -6.349999999999998757, 3.000000000000000000 ) ) ;
#178 = PLANE ( 'NONE',  #41 ) ;
#179 = VERTEX_POINT ( 'NONE', #96 ) ;
#180 = PERSON_AND_ORGANIZATION ( #14, #89 ) ;
#181 = FACE_OUTER_BOUND ( 'NONE', #150, .T. ) ;
#182 =( LENGTH_UNIT ( ) NAMED_UNIT ( * ) SI_UNIT ( .MILLI., .METRE. ) );
#183 = VECTOR ( 'NONE', #86, 1000.000000000000000 ) ;
#184 = PERSON_AND_ORGANIZATION_ROLE ( 'creator' ) ;
#185 = DATE_TIME_ROLE ( 'creation_date' ) ;
#186 =( NAMED_UNIT ( * ) PLANE_ANGLE_UNIT ( ) SI_UNIT ( $, .RADIAN. ) );
#187 = EDGE_CURVE ( 'NONE', #147, #195, #97, .T. ) ;
#188 = DIRECTION ( 'NONE',  ( -1.000000000000000000, -1.365923996832131609E-16, 0.0000000000000000000 ) ) ;
#189 = APPROVAL_PERSON_ORGANIZATION ( #232, #229, #17 ) ;
#190 = VECTOR ( 'NONE', #211, 1000.000000000000000 ) ;
#191 = ORIENTED_EDGE ( 'NONE', *, *, #187, .F. ) ;
#192 = MANIFOLD_SOLID_BREP ( 'Boss-Extrude1', #226 ) ;
#193 = DIRECTION ( 'NONE',  ( 0.0000000000000000000, 1.000000000000000000, 0.0000000000000000000 ) ) ;
#194 = DIRECTION ( 'NONE',  ( 0.0000000000000000000, -0.0000000000000000000, 1.000000000000000000 ) ) ;
#195 = VERTEX_POINT ( 'NONE', #94 ) ;
#196 = CALENDAR_DATE ( 2020, 19, 10 ) ;
#197 = DIRECTION ( 'NONE',  ( -1.365923996832131609E-16, 1.000000000000000000, 0.0000000000000000000 ) ) ;
#198 = CC_DESIGN_PERSON_AND_ORGANIZATION_ASSIGNMENT ( #15, #36, ( #58 ) ) ;
#199 = COORDINATED_UNIVERSAL_TIME_OFFSET ( 5, 0, .BEHIND. ) ;
#200 = APPLICATION_PROTOCOL_DEFINITION ( 'international standard', 'config_control_design', 1994, #92 ) ;
#201 = ORIENTED_EDGE ( 'NONE', *, *, #7, .F. ) ;
#202 = DIRECTION ( 'NONE',  ( 0.0000000000000000000, 0.0000000000000000000, -1.000000000000000000 ) ) ;
#203 = APPROVAL_ROLE ( '' ) ;
#204 = CARTESIAN_POINT ( 'NONE',  ( 0.0000000000000000000, 0.0000000000000000000, 0.0000000000000000000 ) ) ;
#205 = DATE_AND_TIME ( #10, #118 ) ;
#206 = APPROVAL_STATUS ( 'not_yet_approved' ) ;
#207 = VECTOR ( 'NONE', #193, 1000.000000000000000 ) ;
#208 = CARTESIAN_POINT ( 'NONE',  ( 6.349999999999998757, -6.349999999999998757, 3.000000000000000000 ) ) ;
#209 = APPROVAL_PERSON_ORGANIZATION ( #18, #66, #78 ) ;
#210 = ORIENTED_EDGE ( 'NONE', *, *, #120, .T. ) ;
#211 = DIRECTION ( 'NONE',  ( 0.0000000000000000000, 1.000000000000000000, 0.0000000000000000000 ) ) ;
#212 = DIRECTION ( 'NONE',  ( -0.0000000000000000000, -0.0000000000000000000, -1.000000000000000000 ) ) ;
#213 = LINE ( 'NONE', #177, #29 ) ;
#214 = LINE ( 'NONE', #175, #190 ) ;
#215 = DATE_AND_TIME ( #9, #121 ) ;
#216 = CC_DESIGN_PERSON_AND_ORGANIZATION_ASSIGNMENT ( #47, #236, ( #109 ) ) ;
#217 = VECTOR ( 'NONE', #151, 1000.000000000000000 ) ;
#218 = EDGE_CURVE ( 'NONE', #179, #59, #34, .T. ) ;
#219 = APPROVAL_DATE_TIME ( #215, #83 ) ;
#220 = APPROVAL_STATUS ( 'not_yet_approved' ) ;
#221 = DIRECTION ( 'NONE',  ( 1.000000000000000000, 0.0000000000000000000, 0.0000000000000000000 ) ) ;
#222 = CARTESIAN_POINT ( 'NONE',  ( 6.349999999999998757, 6.350000000000000533, -3.000000000000000000 ) ) ;
#223 = CALENDAR_DATE ( 2020, 19, 10 ) ;
#224 = DIRECTION ( 'NONE',  ( -0.0000000000000000000, -0.0000000000000000000, -1.000000000000000000 ) ) ;
#225 = VECTOR ( 'NONE', #60, 1000.000000000000000 ) ;
#226 = CLOSED_SHELL ( 'NONE', ( #152, #105, #44, #103, #227, #100 ) ) ;
#227 = ADVANCED_FACE ( 'NONE', ( #48 ), #135, .T. ) ;
#228 = LOCAL_TIME ( 11, 35, 53.00000000000000000, #38 ) ;
#229 = APPROVAL ( #137, 'UNSPECIFIED' ) ;
#230 = LINE ( 'NONE', #50, #183 ) ;
#231 = CARTESIAN_POINT ( 'NONE',  ( 6.349999999999998757, 6.350000000000000533, 3.000000000000000000 ) ) ;
#232 = PERSON_AND_ORGANIZATION ( #14, #89 ) ;
#233 = CARTESIAN_POINT ( 'NONE',  ( 6.349999999999998757, -6.349999999999998757, -3.000000000000000000 ) ) ;
#234 = LINE ( 'NONE', #26, #73 ) ;
#235 = EDGE_LOOP ( 'NONE', ( #201, #191, #111, #19 ) ) ;
#236 = PERSON_AND_ORGANIZATION_ROLE ( 'design_owner' ) ;
#237 = CARTESIAN_POINT ( 'NONE',  ( -6.350000000000000533, -6.350000000000000533, 3.000000000000000000 ) ) ;
ENDSEC;
END-ISO-10303-21;
