ISO-10303-21;
HEADER;
FILE_DESCRIPTION (( 'STEP AP203' ),
    '1' );
FILE_NAME ('Web Model 14957_14970.step',
    '2020-07-27T18:28:57',
    ( '' ),
    ( '' ),
    'SwSTEP 2.0',
    'SolidWorks 2018',
    '' );
FILE_SCHEMA (( 'CONFIG_CONTROL_DESIGN' ));
ENDSEC;

DATA;
#1 = CC_DESIGN_DATE_AND_TIME_ASSIGNMENT ( #172, #51, ( #23 ) ) ;
#2 = APPROVAL_DATE_TIME ( #43, #159 ) ;
#3 = FACE_OUTER_BOUND ( 'NONE', #99, .T. ) ;
#4 = CC_DESIGN_APPROVAL ( #159, ( #161 ) ) ;
#5 = PLANE ( 'NONE',  #111 ) ;
#6 = CALENDAR_DATE ( 2020, 27, 7 ) ;
#7 = UNCERTAINTY_MEASURE_WITH_UNIT (LENGTH_MEASURE( 1.000000000000000082E-05 ), #140, 'distance_accuracy_value', 'NONE');
#8 = PERSON_AND_ORGANIZATION_ROLE ( 'creator' ) ;
#9 = DIRECTION ( 'NONE',  ( 1.000000000000000000, 0.0000000000000000000, 0.0000000000000000000 ) ) ;
#10 = PRODUCT ( 'Web Model 14957_14970', 'Web Model 14957_14970', '', ( #91 ) ) ;
#11 = LOCAL_TIME ( 14, 28, 57.00000000000000000, #60 ) ;
#12 = PERSON_AND_ORGANIZATION ( #90, #108 ) ;
#13 = EDGE_LOOP ( 'NONE', ( #62, #22, #104, #33 ) ) ;
#14 = DATE_AND_TIME ( #96, #162 ) ;
#15 = DIRECTION ( 'NONE',  ( 0.0000000000000000000, 0.0000000000000000000, 1.000000000000000000 ) ) ;
#16 = DIRECTION ( 'NONE',  ( 0.0000000000000000000, 0.0000000000000000000, -1.000000000000000000 ) ) ;
#17 = PERSON_AND_ORGANIZATION_ROLE ( 'design_supplier' ) ;
#18 = VERTEX_POINT ( 'NONE', #113 ) ;
#19 =( NAMED_UNIT ( * ) PLANE_ANGLE_UNIT ( ) SI_UNIT ( $, .RADIAN. ) );
#20 = APPROVAL_DATE_TIME ( #53, #81 ) ;
#21 = VERTEX_POINT ( 'NONE', #151 ) ;
#22 = ORIENTED_EDGE ( 'NONE', *, *, #114, .F. ) ;
#23 = SECURITY_CLASSIFICATION ( '', '', #141 ) ;
#24 = CIRCLE ( 'NONE', #136, 5.000000000000000000 ) ;
#25 = AXIS2_PLACEMENT_3D ( 'NONE', #101, #100, #15 ) ;
#26 = CC_DESIGN_APPROVAL ( #86, ( #125 ) ) ;
#27 = CARTESIAN_POINT ( 'NONE',  ( -1.000000000000000000, 0.0000000000000000000, 0.0000000000000000000 ) ) ;
#28 = CARTESIAN_POINT ( 'NONE',  ( 1.000000000000000000, 0.0000000000000000000, 5.000000000000000000 ) ) ;
#29 = ORIENTED_EDGE ( 'NONE', *, *, #117, .T. ) ;
#30 = DIRECTION ( 'NONE',  ( 1.000000000000000000, 0.0000000000000000000, 0.0000000000000000000 ) ) ;
#31 = AXIS2_PLACEMENT_3D ( 'NONE', #158, #50, #170 ) ;
#32 = DIRECTION ( 'NONE',  ( 1.000000000000000000, 0.0000000000000000000, 0.0000000000000000000 ) ) ;
#33 = ORIENTED_EDGE ( 'NONE', *, *, #167, .T. ) ;
#34 = CARTESIAN_POINT ( 'NONE',  ( 1.000000000000000000, 0.0000000000000000000, 0.0000000000000000000 ) ) ;
#35 = ADVANCED_FACE ( 'NONE', ( #128 ), #120, .T. ) ;
#36 = CALENDAR_DATE ( 2020, 27, 7 ) ;
#37 = ORIENTED_EDGE ( 'NONE', *, *, #61, .F. ) ;
#38 = CC_DESIGN_SECURITY_CLASSIFICATION ( #23, ( #161 ) ) ;
#39 = COORDINATED_UNIVERSAL_TIME_OFFSET ( 5, 0, .BEHIND. ) ;
#40 = AXIS2_PLACEMENT_3D ( 'NONE', #139, #153, #78 ) ;
#41 = CC_DESIGN_APPROVAL ( #81, ( #23 ) ) ;
#42 = LINE ( 'NONE', #76, #94 ) ;
#43 = DATE_AND_TIME ( #134, #148 ) ;
#44 = CC_DESIGN_PERSON_AND_ORGANIZATION_ASSIGNMENT ( #174, #54, ( #10 ) ) ;
#45 = EDGE_LOOP ( 'NONE', ( #72, #29, #65, #37 ) ) ;
#46 = CARTESIAN_POINT ( 'NONE',  ( 1.000000000000000000, 0.0000000000000000000, 0.0000000000000000000 ) ) ;
#47 = DIRECTION ( 'NONE',  ( 0.0000000000000000000, 0.0000000000000000000, 1.000000000000000000 ) ) ;
#48 = CARTESIAN_POINT ( 'NONE',  ( 1.000000000000000000, 0.0000000000000000000, 0.0000000000000000000 ) ) ;
#49 = PLANE ( 'NONE',  #40 ) ;
#50 = DIRECTION ( 'NONE',  ( 0.0000000000000000000, 0.0000000000000000000, 1.000000000000000000 ) ) ;
#51 = DATE_TIME_ROLE ( 'classification_date' ) ;
#52 = CC_DESIGN_PERSON_AND_ORGANIZATION_ASSIGNMENT ( #110, #115, ( #23 ) ) ;
#53 = DATE_AND_TIME ( #36, #88 ) ;
#54 = PERSON_AND_ORGANIZATION_ROLE ( 'design_owner' ) ;
#55 = ORIENTED_EDGE ( 'NONE', *, *, #167, .F. ) ;
#56 = DATE_AND_TIME ( #73, #11 ) ;
#57 = DESIGN_CONTEXT ( 'detailed design', #143, 'design' ) ;
#58 = LINE ( 'NONE', #28, #122 ) ;
#59 = CARTESIAN_POINT ( 'NONE',  ( 1.000000000000000000, 6.123233995736766282E-16, -5.000000000000000000 ) ) ;
#60 = COORDINATED_UNIVERSAL_TIME_OFFSET ( 5, 0, .BEHIND. ) ;
#61 = EDGE_CURVE ( 'NONE', #21, #18, #58, .T. ) ;
#62 = ORIENTED_EDGE ( 'NONE', *, *, #117, .F. ) ;
#63 = CC_DESIGN_PERSON_AND_ORGANIZATION_ASSIGNMENT ( #132, #8, ( #161 ) ) ;
#64 = APPROVAL_ROLE ( '' ) ;
#65 = ORIENTED_EDGE ( 'NONE', *, *, #70, .T. ) ;
#66 = APPROVAL_STATUS ( 'not_yet_approved' ) ;
#67 = APPLICATION_PROTOCOL_DEFINITION ( 'international standard', 'config_control_design', 1994, #143 ) ;
#68 = COORDINATED_UNIVERSAL_TIME_OFFSET ( 5, 0, .BEHIND. ) ;
#69 = VERTEX_POINT ( 'NONE', #135 ) ;
#70 = EDGE_CURVE ( 'NONE', #69, #18, #95, .T. ) ;
#71 = PRODUCT_RELATED_PRODUCT_CATEGORY ( 'detail', '', ( #10 ) ) ;
#72 = ORIENTED_EDGE ( 'NONE', *, *, #173, .F. ) ;
#73 = CALENDAR_DATE ( 2020, 27, 7 ) ;
#74 = DIRECTION ( 'NONE',  ( -1.000000000000000000, -0.0000000000000000000, -0.0000000000000000000 ) ) ;
#75 = FACE_OUTER_BOUND ( 'NONE', #98, .T. ) ;
#76 = CARTESIAN_POINT ( 'NONE',  ( 1.000000000000000000, 6.123233995736766282E-16, -5.000000000000000000 ) ) ;
#77 = CARTESIAN_POINT ( 'NONE',  ( -1.000000000000000000, 0.0000000000000000000, 0.0000000000000000000 ) ) ;
#78 = DIRECTION ( 'NONE',  ( 0.0000000000000000000, 0.0000000000000000000, -1.000000000000000000 ) ) ;
#79 = DATE_TIME_ROLE ( 'creation_date' ) ;
#80 = APPLICATION_CONTEXT ( 'configuration controlled 3d designs of mechanical parts and assemblies' ) ;
#81 = APPROVAL ( #66, 'UNSPECIFIED' ) ;
#82 = CARTESIAN_POINT ( 'NONE',  ( -1.000000000000000000, 0.0000000000000000000, 0.0000000000000000000 ) ) ;
#83 = AXIS2_PLACEMENT_3D ( 'NONE', #46, #74, #47 ) ;
#84 = CIRCLE ( 'NONE', #119, 5.000000000000000000 ) ;
#85 = PRODUCT_DEFINITION_SHAPE ( 'NONE', 'NONE',  #125 ) ;
#86 = APPROVAL ( #103, 'UNSPECIFIED' ) ;
#87 = DIRECTION ( 'NONE',  ( 1.000000000000000000, 0.0000000000000000000, 0.0000000000000000000 ) ) ;
#88 = LOCAL_TIME ( 14, 28, 57.00000000000000000, #68 ) ;
#89 = DIRECTION ( 'NONE',  ( 1.000000000000000000, 0.0000000000000000000, 0.0000000000000000000 ) ) ;
#90 = PERSON ( 'UNSPECIFIED', 'UNSPECIFIED', 'UNSPECIFIED', ('UNSPECIFIED'), ('UNSPECIFIED'), ('UNSPECIFIED') ) ;
#91 = MECHANICAL_CONTEXT ( 'NONE', #80, 'mechanical' ) ;
#92 = DIRECTION ( 'NONE',  ( 0.0000000000000000000, 0.0000000000000000000, -1.000000000000000000 ) ) ;
#93 = PERSON_AND_ORGANIZATION ( #90, #108 ) ;
#94 = VECTOR ( 'NONE', #124, 1000.000000000000000 ) ;
#95 = CIRCLE ( 'NONE', #107, 5.000000000000000000 ) ;
#96 = CALENDAR_DATE ( 2020, 27, 7 ) ;
#97 = APPROVAL_ROLE ( '' ) ;
#98 = EDGE_LOOP ( 'NONE', ( #55, #157 ) ) ;
#99 = EDGE_LOOP ( 'NONE', ( #147, #175 ) ) ;
#100 = DIRECTION ( 'NONE',  ( -1.000000000000000000, -0.0000000000000000000, -0.0000000000000000000 ) ) ;
#101 = CARTESIAN_POINT ( 'NONE',  ( 1.000000000000000000, 0.0000000000000000000, 0.0000000000000000000 ) ) ;
#102 = PERSON_AND_ORGANIZATION ( #90, #108 ) ;
#103 = APPROVAL_STATUS ( 'not_yet_approved' ) ;
#104 = ORIENTED_EDGE ( 'NONE', *, *, #61, .T. ) ;
#105 = DIRECTION ( 'NONE',  ( 0.0000000000000000000, 0.0000000000000000000, -1.000000000000000000 ) ) ;
#106 = VERTEX_POINT ( 'NONE', #59 ) ;
#107 = AXIS2_PLACEMENT_3D ( 'NONE', #77, #30, #166 ) ;
#108 = ORGANIZATION ( 'UNSPECIFIED', 'UNSPECIFIED', '' ) ;
#109 = MANIFOLD_SOLID_BREP ( 'Boss-Extrude1', #165 ) ;
#110 = PERSON_AND_ORGANIZATION ( #90, #108 ) ;
#111 = AXIS2_PLACEMENT_3D ( 'NONE', #27, #32, #92 ) ;
#112 = CIRCLE ( 'NONE', #131, 5.000000000000000000 ) ;
#113 = CARTESIAN_POINT ( 'NONE',  ( -1.000000000000000000, 0.0000000000000000000, 5.000000000000000000 ) ) ;
#114 = EDGE_CURVE ( 'NONE', #21, #106, #112, .T. ) ;
#115 = PERSON_AND_ORGANIZATION_ROLE ( 'classification_officer' ) ;
#116 = APPLICATION_PROTOCOL_DEFINITION ( 'international standard', 'config_control_design', 1994, #80 ) ;
#117 = EDGE_CURVE ( 'NONE', #106, #69, #42, .T. ) ;
#118 =( GEOMETRIC_REPRESENTATION_CONTEXT ( 3 ) GLOBAL_UNCERTAINTY_ASSIGNED_CONTEXT ( ( #7 ) ) GLOBAL_UNIT_ASSIGNED_CONTEXT ( ( #140, #19, #126 ) ) REPRESENTATION_CONTEXT ( 'NONE', 'WORKASPACE' ) );
#119 = AXIS2_PLACEMENT_3D ( 'NONE', #34, #89, #16 ) ;
#120 = CYLINDRICAL_SURFACE ( 'NONE', #83, 5.000000000000000000 ) ;
#121 = FACE_OUTER_BOUND ( 'NONE', #13, .T. ) ;
#122 = VECTOR ( 'NONE', #152, 1000.000000000000000 ) ;
#123 = PERSON_AND_ORGANIZATION ( #90, #108 ) ;
#124 = DIRECTION ( 'NONE',  ( -1.000000000000000000, -0.0000000000000000000, -0.0000000000000000000 ) ) ;
#125 = PRODUCT_DEFINITION ( 'UNKNOWN', '', #161, #57 ) ;
#126 =( NAMED_UNIT ( * ) SI_UNIT ( $, .STERADIAN. ) SOLID_ANGLE_UNIT ( ) );
#127 = APPROVAL_STATUS ( 'not_yet_approved' ) ;
#128 = FACE_OUTER_BOUND ( 'NONE', #45, .T. ) ;
#129 = ADVANCED_FACE ( 'NONE', ( #121 ), #150, .T. ) ;
#130 = PERSON_AND_ORGANIZATION ( #90, #108 ) ;
#131 = AXIS2_PLACEMENT_3D ( 'NONE', #48, #87, #137 ) ;
#132 = PERSON_AND_ORGANIZATION ( #90, #108 ) ;
#133 = CC_DESIGN_PERSON_AND_ORGANIZATION_ASSIGNMENT ( #93, #155, ( #125 ) ) ;
#134 = CALENDAR_DATE ( 2020, 27, 7 ) ;
#135 = CARTESIAN_POINT ( 'NONE',  ( -1.000000000000000000, 6.123233995736766282E-16, -5.000000000000000000 ) ) ;
#136 = AXIS2_PLACEMENT_3D ( 'NONE', #82, #9, #105 ) ;
#137 = DIRECTION ( 'NONE',  ( 0.0000000000000000000, 0.0000000000000000000, -1.000000000000000000 ) ) ;
#138 = LOCAL_TIME ( 14, 28, 57.00000000000000000, #163 ) ;
#139 = CARTESIAN_POINT ( 'NONE',  ( 1.000000000000000000, 0.0000000000000000000, 0.0000000000000000000 ) ) ;
#140 =( LENGTH_UNIT ( ) NAMED_UNIT ( * ) SI_UNIT ( .MILLI., .METRE. ) );
#141 = SECURITY_CLASSIFICATION_LEVEL ( 'unclassified' ) ;
#142 = ADVANCED_FACE ( 'NONE', ( #3 ), #49, .T. ) ;
#143 = APPLICATION_CONTEXT ( 'configuration controlled 3d designs of mechanical parts and assemblies' ) ;
#144 = APPROVAL_PERSON_ORGANIZATION ( #130, #86, #64 ) ;
#145 = COORDINATED_UNIVERSAL_TIME_OFFSET ( 5, 0, .BEHIND. ) ;
#146 = APPROVAL_PERSON_ORGANIZATION ( #102, #81, #97 ) ;
#147 = ORIENTED_EDGE ( 'NONE', *, *, #114, .T. ) ;
#148 = LOCAL_TIME ( 14, 28, 57.00000000000000000, #39 ) ;
#149 = SHAPE_DEFINITION_REPRESENTATION ( #85, #154 ) ;
#150 = CYLINDRICAL_SURFACE ( 'NONE', #25, 5.000000000000000000 ) ;
#151 = CARTESIAN_POINT ( 'NONE',  ( 1.000000000000000000, 0.0000000000000000000, 5.000000000000000000 ) ) ;
#152 = DIRECTION ( 'NONE',  ( -1.000000000000000000, -0.0000000000000000000, -0.0000000000000000000 ) ) ;
#153 = DIRECTION ( 'NONE',  ( 1.000000000000000000, 0.0000000000000000000, 0.0000000000000000000 ) ) ;
#154 = ADVANCED_BREP_SHAPE_REPRESENTATION ( 'Web Model 14957_14970', ( #109, #31 ), #118 ) ;
#155 = PERSON_AND_ORGANIZATION_ROLE ( 'creator' ) ;
#156 = ADVANCED_FACE ( 'NONE', ( #75 ), #5, .F. ) ;
#157 = ORIENTED_EDGE ( 'NONE', *, *, #70, .F. ) ;
#158 = CARTESIAN_POINT ( 'NONE',  ( 0.0000000000000000000, 0.0000000000000000000, 0.0000000000000000000 ) ) ;
#159 = APPROVAL ( #127, 'UNSPECIFIED' ) ;
#160 = APPROVAL_DATE_TIME ( #14, #86 ) ;
#161 = PRODUCT_DEFINITION_FORMATION_WITH_SPECIFIED_SOURCE ( 'ANY', '', #10, .NOT_KNOWN. ) ;
#162 = LOCAL_TIME ( 14, 28, 57.00000000000000000, #145 ) ;
#163 = COORDINATED_UNIVERSAL_TIME_OFFSET ( 5, 0, .BEHIND. ) ;
#164 = CC_DESIGN_PERSON_AND_ORGANIZATION_ASSIGNMENT ( #123, #17, ( #161 ) ) ;
#165 = CLOSED_SHELL ( 'NONE', ( #35, #129, #142, #156 ) ) ;
#166 = DIRECTION ( 'NONE',  ( 0.0000000000000000000, 0.0000000000000000000, -1.000000000000000000 ) ) ;
#167 = EDGE_CURVE ( 'NONE', #18, #69, #24, .T. ) ;
#168 = APPROVAL_ROLE ( '' ) ;
#169 = CC_DESIGN_DATE_AND_TIME_ASSIGNMENT ( #56, #79, ( #125 ) ) ;
#170 = DIRECTION ( 'NONE',  ( 1.000000000000000000, 0.0000000000000000000, 0.0000000000000000000 ) ) ;
#171 = APPROVAL_PERSON_ORGANIZATION ( #12, #159, #168 ) ;
#172 = DATE_AND_TIME ( #6, #138 ) ;
#173 = EDGE_CURVE ( 'NONE', #106, #21, #84, .T. ) ;
#174 = PERSON_AND_ORGANIZATION ( #90, #108 ) ;
#175 = ORIENTED_EDGE ( 'NONE', *, *, #173, .T. ) ;
ENDSEC;
END-ISO-10303-21;
