ISO-10303-21;
HEADER;
FILE_DESCRIPTION (( 'STEP AP214' ),
    '1' );
FILE_NAME ('TTN166726-E0W.STEP',
    '2018-10-15T14:02:28',
    ( '' ),
    ( '' ),
    'SwSTEP 2.0',
    'SolidWorks 2018',
    '' );
FILE_SCHEMA (( 'AUTOMOTIVE_DESIGN' ));
ENDSEC;

DATA;
#1 = LINE ( 'NONE', #98, #12 ) ;
#2 = COLOUR_RGB ( '',0.7529411764705882248, 0.7529411764705882248, 0.7529411764705882248 ) ;
#3 = AXIS2_PLACEMENT_3D ( 'NONE', #83, #35, #69 ) ;
#4 =( GEOMETRIC_REPRESENTATION_CONTEXT ( 3 ) GLOBAL_UNCERTAINTY_ASSIGNED_CONTEXT ( ( #187 ) ) GLOBAL_UNIT_ASSIGNED_CONTEXT ( ( #85, #180, #97 ) ) REPRESENTATION_CONTEXT ( 'NONE', 'WORKASPACE' ) );
#5 = DIRECTION ( 'NONE',  ( 1.000000000000000000, 0.0000000000000000000, 0.0000000000000000000 ) ) ;
#6 = CARTESIAN_POINT ( 'NONE',  ( 0.0000000000000000000, 52.00000000000000000, 3.000000000000000000 ) ) ;
#7 = DIRECTION ( 'NONE',  ( -0.0000000000000000000, -1.000000000000000000, -0.0000000000000000000 ) ) ;
#8 = LINE ( 'NONE', #34, #125 ) ;
#9 = LINE ( 'NONE', #41, #108 ) ;
#10 = CARTESIAN_POINT ( 'NONE',  ( 35.00000000000000711, 0.0000000000000000000, 0.0000000000000000000 ) ) ;
#11 = CARTESIAN_POINT ( 'NONE',  ( 35.00000000000000711, 0.0000000000000000000, 3.000000000000000000 ) ) ;
#12 = VECTOR ( 'NONE', #87, 1000.000000000000000 ) ;
#13 = ADVANCED_BREP_SHAPE_REPRESENTATION ( 'TTN166726-E0W', ( #18, #104 ), #4 ) ;
#14 = EDGE_CURVE ( 'NONE', #62, #154, #71, .T. ) ;
#15 = ADVANCED_FACE ( 'NONE', ( #82 ), #176, .T. ) ;
#16 = EDGE_CURVE ( 'NONE', #159, #154, #8, .T. ) ;
#17 = VECTOR ( 'NONE', #84, 1000.000000000000000 ) ;
#18 = MANIFOLD_SOLID_BREP ( 'Boss-Extrude1', #202 ) ;
#19 = EDGE_LOOP ( 'NONE', ( #55, #102, #194, #128 ) ) ;
#20 = VECTOR ( 'NONE', #118, 1000.000000000000000 ) ;
#21 = PRODUCT_DEFINITION_SHAPE ( 'NONE', 'NONE',  #162 ) ;
#22 = CARTESIAN_POINT ( 'NONE',  ( 0.0000000000000000000, 52.00000000000000000, 0.0000000000000000000 ) ) ;
#23 = PLANE ( 'NONE',  #3 ) ;
#24 = CARTESIAN_POINT ( 'NONE',  ( 0.0000000000000000000, 0.0000000000000000000, 0.0000000000000000000 ) ) ;
#25 = PRESENTATION_STYLE_ASSIGNMENT (( #96 ) ) ;
#26 = CARTESIAN_POINT ( 'NONE',  ( 0.0000000000000000000, 52.00000000000000000, 3.000000000000000000 ) ) ;
#27 = LINE ( 'NONE', #26, #189 ) ;
#28 = EDGE_CURVE ( 'NONE', #76, #159, #45, .T. ) ;
#29 = EDGE_LOOP ( 'NONE', ( #126, #95, #158, #143 ) ) ;
#30 = LINE ( 'NONE', #73, #144 ) ;
#31 = ORIENTED_EDGE ( 'NONE', *, *, #58, .F. ) ;
#32 = APPLICATION_CONTEXT ( 'automotive_design' ) ;
#33 = APPLICATION_PROTOCOL_DEFINITION ( 'draft international standard', 'automotive_design', 1998, #32 ) ;
#34 = CARTESIAN_POINT ( 'NONE',  ( 0.0000000000000000000, 52.00000000000000000, 0.0000000000000000000 ) ) ;
#35 = DIRECTION ( 'NONE',  ( 1.000000000000000000, 0.0000000000000000000, 0.0000000000000000000 ) ) ;
#36 = ORIENTED_EDGE ( 'NONE', *, *, #58, .T. ) ;
#37 = DIRECTION ( 'NONE',  ( 1.000000000000000000, 0.0000000000000000000, 0.0000000000000000000 ) ) ;
#38 = CARTESIAN_POINT ( 'NONE',  ( 0.0000000000000000000, 0.0000000000000000000, 3.000000000000000000 ) ) ;
#39 = EDGE_CURVE ( 'NONE', #62, #199, #30, .T. ) ;
#40 = EDGE_LOOP ( 'NONE', ( #36, #188, #64, #78 ) ) ;
#41 = CARTESIAN_POINT ( 'NONE',  ( 35.00000000000000711, 0.0000000000000000000, 3.000000000000000000 ) ) ;
#42 = DIRECTION ( 'NONE',  ( 0.0000000000000000000, 1.000000000000000000, 0.0000000000000000000 ) ) ;
#43 = PRODUCT_RELATED_PRODUCT_CATEGORY ( 'part', '', ( #44 ) ) ;
#44 = PRODUCT ( 'TTN166726-E0W', 'TTN166726-E0W', '', ( #182 ) ) ;
#45 = LINE ( 'NONE', #135, #57 ) ;
#46 = FACE_OUTER_BOUND ( 'NONE', #19, .T. ) ;
#47 = EDGE_CURVE ( 'NONE', #107, #169, #201, .T. ) ;
#48 = ORIENTED_EDGE ( 'NONE', *, *, #139, .T. ) ;
#49 = PLANE ( 'NONE',  #77 ) ;
#50 = APPLICATION_CONTEXT ( 'automotive_design' ) ;
#51 =( LENGTH_UNIT ( ) NAMED_UNIT ( * ) SI_UNIT ( .MILLI., .METRE. ) );
#52 = CARTESIAN_POINT ( 'NONE',  ( 0.0000000000000000000, 0.0000000000000000000, 3.000000000000000000 ) ) ;
#53 =( NAMED_UNIT ( * ) SI_UNIT ( $, .STERADIAN. ) SOLID_ANGLE_UNIT ( ) );
#54 = SURFACE_SIDE_STYLE ('',( #75 ) ) ;
#55 = ORIENTED_EDGE ( 'NONE', *, *, #39, .T. ) ;
#56 = EDGE_CURVE ( 'NONE', #199, #105, #1, .T. ) ;
#57 = VECTOR ( 'NONE', #117, 1000.000000000000000 ) ;
#58 = EDGE_CURVE ( 'NONE', #169, #159, #100, .T. ) ;
#59 = ORIENTED_EDGE ( 'NONE', *, *, #47, .T. ) ;
#60 = AXIS2_PLACEMENT_3D ( 'NONE', #24, #195, #132 ) ;
#61 = LINE ( 'NONE', #66, #20 ) ;
#62 = VERTEX_POINT ( 'NONE', #168 ) ;
#63 = EDGE_CURVE ( 'NONE', #154, #107, #65, .T. ) ;
#64 = ORIENTED_EDGE ( 'NONE', *, *, #131, .F. ) ;
#65 = LINE ( 'NONE', #166, #138 ) ;
#66 = CARTESIAN_POINT ( 'NONE',  ( 0.0000000000000000000, 0.0000000000000000000, 3.000000000000000000 ) ) ;
#67 =( GEOMETRIC_REPRESENTATION_CONTEXT ( 3 ) GLOBAL_UNCERTAINTY_ASSIGNED_CONTEXT ( ( #196 ) ) GLOBAL_UNIT_ASSIGNED_CONTEXT ( ( #51, #178, #151 ) ) REPRESENTATION_CONTEXT ( 'NONE', 'WORKASPACE' ) );
#68 = CARTESIAN_POINT ( 'NONE',  ( 0.0000000000000000000, 0.0000000000000000000, 3.000000000000000000 ) ) ;
#69 = DIRECTION ( 'NONE',  ( 0.0000000000000000000, 0.0000000000000000000, -1.000000000000000000 ) ) ;
#70 =( LENGTH_UNIT ( ) NAMED_UNIT ( * ) SI_UNIT ( .MILLI., .METRE. ) );
#71 = LINE ( 'NONE', #6, #137 ) ;
#72 = DIRECTION ( 'NONE',  ( -0.0000000000000000000, -1.000000000000000000, -0.0000000000000000000 ) ) ;
#73 = CARTESIAN_POINT ( 'NONE',  ( 0.0000000000000000000, 0.0000000000000000000, 3.000000000000000000 ) ) ;
#74 = PRESENTATION_LAYER_ASSIGNMENT (  '', '', ( #155 ) ) ;
#75 = SURFACE_STYLE_FILL_AREA ( #163 ) ;
#76 = VERTEX_POINT ( 'NONE', #147 ) ;
#77 = AXIS2_PLACEMENT_3D ( 'NONE', #68, #42, #200 ) ;
#78 = ORIENTED_EDGE ( 'NONE', *, *, #124, .T. ) ;
#79 = ADVANCED_FACE ( 'NONE', ( #172 ), #49, .F. ) ;
#80 = SURFACE_STYLE_FILL_AREA ( #113 ) ;
#81 = MECHANICAL_DESIGN_GEOMETRIC_PRESENTATION_REPRESENTATION (  '', ( #155 ), #67 ) ;
#82 = FACE_OUTER_BOUND ( 'NONE', #174, .T. ) ;
#83 = CARTESIAN_POINT ( 'NONE',  ( 0.0000000000000000000, 0.0000000000000000000, 3.000000000000000000 ) ) ;
#84 = DIRECTION ( 'NONE',  ( 0.0000000000000000000, 1.000000000000000000, 0.0000000000000000000 ) ) ;
#85 =( LENGTH_UNIT ( ) NAMED_UNIT ( * ) SI_UNIT ( .MILLI., .METRE. ) );
#86 = DIRECTION ( 'NONE',  ( 0.0000000000000000000, 0.0000000000000000000, 1.000000000000000000 ) ) ;
#87 = DIRECTION ( 'NONE',  ( 1.000000000000000000, 0.0000000000000000000, 0.0000000000000000000 ) ) ;
#88 = VECTOR ( 'NONE', #153, 1000.000000000000000 ) ;
#89 = SHAPE_DEFINITION_REPRESENTATION ( #21, #13 ) ;
#90 = CARTESIAN_POINT ( 'NONE',  ( 0.0000000000000000000, 0.0000000000000000000, 0.0000000000000000000 ) ) ;
#91 = AXIS2_PLACEMENT_3D ( 'NONE', #52, #175, #133 ) ;
#92 = ADVANCED_FACE ( 'NONE', ( #94 ), #140, .F. ) ;
#93 = ORIENTED_EDGE ( 'NONE', *, *, #16, .T. ) ;
#94 = FACE_OUTER_BOUND ( 'NONE', #40, .T. ) ;
#95 = ORIENTED_EDGE ( 'NONE', *, *, #139, .F. ) ;
#96 = SURFACE_STYLE_USAGE ( .BOTH. , #197 ) ;
#97 =( NAMED_UNIT ( * ) SI_UNIT ( $, .STERADIAN. ) SOLID_ANGLE_UNIT ( ) );
#98 = CARTESIAN_POINT ( 'NONE',  ( 0.0000000000000000000, 0.0000000000000000000, 3.000000000000000000 ) ) ;
#99 = ORIENTED_EDGE ( 'NONE', *, *, #16, .F. ) ;
#100 = LINE ( 'NONE', #10, #17 ) ;
#101 = DIRECTION ( 'NONE',  ( -0.0000000000000000000, -0.0000000000000000000, -1.000000000000000000 ) ) ;
#102 = ORIENTED_EDGE ( 'NONE', *, *, #56, .T. ) ;
#103 = LINE ( 'NONE', #171, #88 ) ;
#104 = AXIS2_PLACEMENT_3D ( 'NONE', #165, #86, #5 ) ;
#105 = VERTEX_POINT ( 'NONE', #11 ) ;
#106 = UNCERTAINTY_MEASURE_WITH_UNIT (LENGTH_MEASURE( 1.000000000000000082E-05 ), #70, 'distance_accuracy_value', 'NONE');
#107 = VERTEX_POINT ( 'NONE', #90 ) ;
#108 = VECTOR ( 'NONE', #101, 1000.000000000000000 ) ;
#109 = STYLED_ITEM ( 'NONE', ( #161 ), #13 ) ;
#110 = ORIENTED_EDGE ( 'NONE', *, *, #124, .F. ) ;
#111 = ORIENTED_EDGE ( 'NONE', *, *, #63, .F. ) ;
#112 = PRODUCT_DEFINITION_FORMATION_WITH_SPECIFIED_SOURCE ( 'ANY', '', #44, .NOT_KNOWN. ) ;
#113 = FILL_AREA_STYLE ('',( #134 ) ) ;
#114 =( NAMED_UNIT ( * ) PLANE_ANGLE_UNIT ( ) SI_UNIT ( $, .RADIAN. ) );
#115 = PRODUCT_DEFINITION_CONTEXT ( 'detailed design', #50, 'design' ) ;
#116 = ORIENTED_EDGE ( 'NONE', *, *, #28, .T. ) ;
#117 = DIRECTION ( 'NONE',  ( -0.0000000000000000000, -0.0000000000000000000, -1.000000000000000000 ) ) ;
#118 = DIRECTION ( 'NONE',  ( -0.0000000000000000000, -0.0000000000000000000, -1.000000000000000000 ) ) ;
#119 = DIRECTION ( 'NONE',  ( -0.0000000000000000000, -0.0000000000000000000, -1.000000000000000000 ) ) ;
#120 = DIRECTION ( 'NONE',  ( 0.0000000000000000000, -1.000000000000000000, 0.0000000000000000000 ) ) ;
#121 = DIRECTION ( 'NONE',  ( 0.0000000000000000000, 0.0000000000000000000, 1.000000000000000000 ) ) ;
#122 = EDGE_LOOP ( 'NONE', ( #59, #110, #181, #48 ) ) ;
#123 = CARTESIAN_POINT ( 'NONE',  ( 35.00000000000000711, 0.0000000000000000000, 3.000000000000000000 ) ) ;
#124 = EDGE_CURVE ( 'NONE', #105, #169, #9, .T. ) ;
#125 = VECTOR ( 'NONE', #149, 1000.000000000000000 ) ;
#126 = ORIENTED_EDGE ( 'NONE', *, *, #63, .T. ) ;
#127 = EDGE_CURVE ( 'NONE', #76, #62, #27, .T. ) ;
#128 = ORIENTED_EDGE ( 'NONE', *, *, #127, .T. ) ;
#129 = FACE_OUTER_BOUND ( 'NONE', #184, .T. ) ;
#130 = CARTESIAN_POINT ( 'NONE',  ( 0.0000000000000000000, 52.00000000000000000, 3.000000000000000000 ) ) ;
#131 = EDGE_CURVE ( 'NONE', #105, #76, #103, .T. ) ;
#132 = DIRECTION ( 'NONE',  ( -1.000000000000000000, 0.0000000000000000000, -0.0000000000000000000 ) ) ;
#133 = DIRECTION ( 'NONE',  ( -1.000000000000000000, 0.0000000000000000000, -0.0000000000000000000 ) ) ;
#134 = FILL_AREA_STYLE_COLOUR ( '', #164 ) ;
#135 = CARTESIAN_POINT ( 'NONE',  ( 35.00000000000000711, 52.00000000000000000, 3.000000000000000000 ) ) ;
#136 = APPLICATION_PROTOCOL_DEFINITION ( 'draft international standard', 'automotive_design', 1998, #50 ) ;
#137 = VECTOR ( 'NONE', #119, 1000.000000000000000 ) ;
#138 = VECTOR ( 'NONE', #7, 1000.000000000000000 ) ;
#139 = EDGE_CURVE ( 'NONE', #199, #107, #61, .T. ) ;
#140 = PLANE ( 'NONE',  #186 ) ;
#141 = DIRECTION ( 'NONE',  ( -1.000000000000000000, -0.0000000000000000000, -0.0000000000000000000 ) ) ;
#142 = ADVANCED_FACE ( 'NONE', ( #46 ), #192, .F. ) ;
#143 = ORIENTED_EDGE ( 'NONE', *, *, #14, .T. ) ;
#144 = VECTOR ( 'NONE', #72, 1000.000000000000000 ) ;
#145 = ORIENTED_EDGE ( 'NONE', *, *, #127, .F. ) ;
#146 = PLANE ( 'NONE',  #198 ) ;
#147 = CARTESIAN_POINT ( 'NONE',  ( 35.00000000000000711, 52.00000000000000000, 3.000000000000000000 ) ) ;
#148 = FILL_AREA_STYLE_COLOUR ( '', #2 ) ;
#149 = DIRECTION ( 'NONE',  ( -1.000000000000000000, -0.0000000000000000000, -0.0000000000000000000 ) ) ;
#150 = CARTESIAN_POINT ( 'NONE',  ( 35.00000000000000711, 0.0000000000000000000, 0.0000000000000000000 ) ) ;
#151 =( NAMED_UNIT ( * ) SI_UNIT ( $, .STERADIAN. ) SOLID_ANGLE_UNIT ( ) );
#152 = CARTESIAN_POINT ( 'NONE',  ( 0.0000000000000000000, 0.0000000000000000000, 0.0000000000000000000 ) ) ;
#153 = DIRECTION ( 'NONE',  ( 0.0000000000000000000, 1.000000000000000000, 0.0000000000000000000 ) ) ;
#154 = VERTEX_POINT ( 'NONE', #22 ) ;
#155 = STYLED_ITEM ( 'NONE', ( #25 ), #18 ) ;
#156 = ORIENTED_EDGE ( 'NONE', *, *, #14, .F. ) ;
#157 = ADVANCED_FACE ( 'NONE', ( #129 ), #146, .F. ) ;
#158 = ORIENTED_EDGE ( 'NONE', *, *, #39, .F. ) ;
#159 = VERTEX_POINT ( 'NONE', #179 ) ;
#160 = VECTOR ( 'NONE', #37, 1000.000000000000000 ) ;
#161 = PRESENTATION_STYLE_ASSIGNMENT (( #167 ) ) ;
#162 = PRODUCT_DEFINITION ( 'UNKNOWN', '', #112, #115 ) ;
#163 = FILL_AREA_STYLE ('',( #148 ) ) ;
#164 = COLOUR_RGB ( '',0.7529411764705882248, 0.7529411764705882248, 0.7529411764705882248 ) ;
#165 = CARTESIAN_POINT ( 'NONE',  ( 0.0000000000000000000, 0.0000000000000000000, 0.0000000000000000000 ) ) ;
#166 = CARTESIAN_POINT ( 'NONE',  ( 0.0000000000000000000, 0.0000000000000000000, 0.0000000000000000000 ) ) ;
#167 = SURFACE_STYLE_USAGE ( .BOTH. , #54 ) ;
#168 = CARTESIAN_POINT ( 'NONE',  ( 0.0000000000000000000, 52.00000000000000000, 3.000000000000000000 ) ) ;
#169 = VERTEX_POINT ( 'NONE', #150 ) ;
#170 = DIRECTION ( 'NONE',  ( -1.000000000000000000, 0.0000000000000000000, 0.0000000000000000000 ) ) ;
#171 = CARTESIAN_POINT ( 'NONE',  ( 35.00000000000000711, 0.0000000000000000000, 3.000000000000000000 ) ) ;
#172 = FACE_OUTER_BOUND ( 'NONE', #122, .T. ) ;
#173 = MECHANICAL_DESIGN_GEOMETRIC_PRESENTATION_REPRESENTATION (  '', ( #109 ), #193 ) ;
#174 = EDGE_LOOP ( 'NONE', ( #111, #99, #31, #190 ) ) ;
#175 = DIRECTION ( 'NONE',  ( 0.0000000000000000000, 0.0000000000000000000, -1.000000000000000000 ) ) ;
#176 = PLANE ( 'NONE',  #60 ) ;
#177 = DIRECTION ( 'NONE',  ( 0.0000000000000000000, -0.0000000000000000000, -1.000000000000000000 ) ) ;
#178 =( NAMED_UNIT ( * ) PLANE_ANGLE_UNIT ( ) SI_UNIT ( $, .RADIAN. ) );
#179 = CARTESIAN_POINT ( 'NONE',  ( 35.00000000000000711, 52.00000000000000000, 0.0000000000000000000 ) ) ;
#180 =( NAMED_UNIT ( * ) PLANE_ANGLE_UNIT ( ) SI_UNIT ( $, .RADIAN. ) );
#181 = ORIENTED_EDGE ( 'NONE', *, *, #56, .F. ) ;
#182 = PRODUCT_CONTEXT ( 'NONE', #32, 'mechanical' ) ;
#183 = PRESENTATION_LAYER_ASSIGNMENT (  '', '', ( #109 ) ) ;
#184 = EDGE_LOOP ( 'NONE', ( #93, #156, #145, #116 ) ) ;
#185 = ADVANCED_FACE ( 'NONE', ( #191 ), #23, .F. ) ;
#186 = AXIS2_PLACEMENT_3D ( 'NONE', #123, #170, #121 ) ;
#187 = UNCERTAINTY_MEASURE_WITH_UNIT (LENGTH_MEASURE( 1.000000000000000082E-05 ), #85, 'distance_accuracy_value', 'NONE');
#188 = ORIENTED_EDGE ( 'NONE', *, *, #28, .F. ) ;
#189 = VECTOR ( 'NONE', #141, 1000.000000000000000 ) ;
#190 = ORIENTED_EDGE ( 'NONE', *, *, #47, .F. ) ;
#191 = FACE_OUTER_BOUND ( 'NONE', #29, .T. ) ;
#192 = PLANE ( 'NONE',  #91 ) ;
#193 =( GEOMETRIC_REPRESENTATION_CONTEXT ( 3 ) GLOBAL_UNCERTAINTY_ASSIGNED_CONTEXT ( ( #106 ) ) GLOBAL_UNIT_ASSIGNED_CONTEXT ( ( #70, #114, #53 ) ) REPRESENTATION_CONTEXT ( 'NONE', 'WORKASPACE' ) );
#194 = ORIENTED_EDGE ( 'NONE', *, *, #131, .T. ) ;
#195 = DIRECTION ( 'NONE',  ( 0.0000000000000000000, 0.0000000000000000000, -1.000000000000000000 ) ) ;
#196 = UNCERTAINTY_MEASURE_WITH_UNIT (LENGTH_MEASURE( 1.000000000000000082E-05 ), #51, 'distance_accuracy_value', 'NONE');
#197 = SURFACE_SIDE_STYLE ('',( #80 ) ) ;
#198 = AXIS2_PLACEMENT_3D ( 'NONE', #130, #120, #177 ) ;
#199 = VERTEX_POINT ( 'NONE', #38 ) ;
#200 = DIRECTION ( 'NONE',  ( 0.0000000000000000000, -0.0000000000000000000, 1.000000000000000000 ) ) ;
#201 = LINE ( 'NONE', #152, #160 ) ;
#202 = CLOSED_SHELL ( 'NONE', ( #185, #79, #92, #157, #142, #15 ) ) ;
ENDSEC;
END-ISO-10303-21;
