ISO-10303-21;
HEADER;
FILE_DESCRIPTION (( 'STEP AP203' ),
    '1' );
FILE_NAME ('Web Model 19837_19846.step',
    '2022-04-06T15:00:59',
    ( 'WC' ),
    ( 'Windows Central' ),
    'SwSTEP 2.0',
    'SolidWorks 2021',
    '' );
FILE_SCHEMA (( 'CONFIG_CONTROL_DESIGN' ));
ENDSEC;

DATA;
#1 = APPROVAL_PERSON_ORGANIZATION ( #149, #29, #93 ) ;
#2 = CIRCLE ( 'NONE', #32, 12.50000000000000000 ) ;
#3 = ORIENTED_EDGE ( 'NONE', *, *, #85, .F. ) ;
#4 = DIRECTION ( 'NONE',  ( 0.000000000000000000, 0.000000000000000000, 1.000000000000000000 ) ) ;
#5 = CARTESIAN_POINT ( 'NONE',  ( 0.000000000000000000, 0.000000000000000000, 0.000000000000000000 ) ) ;
#6 = CARTESIAN_POINT ( 'NONE',  ( -12.50000000000000000, 0.000000000000000000, 0.000000000000000000 ) ) ;
#7 = ADVANCED_FACE ( 'NONE', ( #42 ), #15, .T. ) ;
#8 = CALENDAR_DATE ( 2022, 6, 4 ) ;
#9 = PERSON_AND_ORGANIZATION_ROLE ( 'creator' ) ;
#10 = CALENDAR_DATE ( 2022, 6, 4 ) ;
#11 = ADVANCED_FACE ( 'NONE', ( #153 ), #138, .T. ) ;
#12 = PERSON_AND_ORGANIZATION ( #168, #69 ) ;
#13 = CC_DESIGN_PERSON_AND_ORGANIZATION_ASSIGNMENT ( #91, #150, ( #135 ) ) ;
#14 = EDGE_LOOP ( 'NONE', ( #154, #43, #98, #164 ) ) ;
#15 = CYLINDRICAL_SURFACE ( 'NONE', #92, 12.50000000000000000 ) ;
#16 = CARTESIAN_POINT ( 'NONE',  ( 0.000000000000000000, 0.000000000000000000, 1.000000000000000000 ) ) ;
#17 = AXIS2_PLACEMENT_3D ( 'NONE', #16, #73, #123 ) ;
#18 = EDGE_CURVE ( 'NONE', #166, #110, #136, .T. ) ;
#19 =( NAMED_UNIT ( * ) SI_UNIT ( $, .STERADIAN. ) SOLID_ANGLE_UNIT ( ) );
#20 = APPROVAL_STATUS ( 'not_yet_approved' ) ;
#21 = DIRECTION ( 'NONE',  ( 1.000000000000000000, 0.000000000000000000, 0.000000000000000000 ) ) ;
#22 = VECTOR ( 'NONE', #61, 1000.000000000000000 ) ;
#23 = CALENDAR_DATE ( 2022, 6, 4 ) ;
#24 = EDGE_CURVE ( 'NONE', #110, #28, #2, .T. ) ;
#25 = COORDINATED_UNIVERSAL_TIME_OFFSET ( 5, 0, .BEHIND. ) ;
#26 = APPROVAL_STATUS ( 'not_yet_approved' ) ;
#27 = ORIENTED_EDGE ( 'NONE', *, *, #147, .T. ) ;
#28 = VERTEX_POINT ( 'NONE', #6 ) ;
#29 = APPROVAL ( #39, 'UNSPECIFIED' ) ;
#30 = LOCAL_TIME ( 11, 0, 59.00000000000000000, #84 ) ;
#31 = CARTESIAN_POINT ( 'NONE',  ( -12.50000000000000000, 0.000000000000000000, 1.000000000000000000 ) ) ;
#32 = AXIS2_PLACEMENT_3D ( 'NONE', #159, #125, #127 ) ;
#33 = APPLICATION_PROTOCOL_DEFINITION ( 'international standard', 'config_control_design', 1994, #107 ) ;
#34 = CARTESIAN_POINT ( 'NONE',  ( 12.50000000000000000, 1.530808498934191521E-15, 1.000000000000000000 ) ) ;
#35 = APPROVAL_ROLE ( '' ) ;
#36 = ADVANCED_FACE ( 'NONE', ( #62 ), #144, .F. ) ;
#37 = AXIS2_PLACEMENT_3D ( 'NONE', #46, #47, #78 ) ;
#38 = SHAPE_DEFINITION_REPRESENTATION ( #126, #70 ) ;
#39 = APPROVAL_STATUS ( 'not_yet_approved' ) ;
#40 = LOCAL_TIME ( 11, 0, 59.00000000000000000, #133 ) ;
#41 = ORIENTED_EDGE ( 'NONE', *, *, #171, .T. ) ;
#42 = FACE_OUTER_BOUND ( 'NONE', #137, .T. ) ;
#43 = ORIENTED_EDGE ( 'NONE', *, *, #18, .T. ) ;
#44 = CC_DESIGN_SECURITY_CLASSIFICATION ( #155, ( #135 ) ) ;
#45 = APPLICATION_PROTOCOL_DEFINITION ( 'international standard', 'config_control_design', 1994, #97 ) ;
#46 = CARTESIAN_POINT ( 'NONE',  ( 0.000000000000000000, 0.000000000000000000, 0.000000000000000000 ) ) ;
#47 = DIRECTION ( 'NONE',  ( 0.000000000000000000, 0.000000000000000000, 1.000000000000000000 ) ) ;
#48 = AXIS2_PLACEMENT_3D ( 'NONE', #5, #4, #21 ) ;
#49 = PERSON_AND_ORGANIZATION ( #168, #69 ) ;
#50 = PERSON_AND_ORGANIZATION ( #168, #69 ) ;
#51 = SECURITY_CLASSIFICATION_LEVEL ( 'unclassified' ) ;
#52 = LOCAL_TIME ( 11, 0, 59.00000000000000000, #76 ) ;
#53 = APPROVAL ( #20, 'UNSPECIFIED' ) ;
#54 = ORIENTED_EDGE ( 'NONE', *, *, #139, .T. ) ;
#55 = ORIENTED_EDGE ( 'NONE', *, *, #85, .T. ) ;
#56 = APPROVAL_PERSON_ORGANIZATION ( #49, #53, #79 ) ;
#57 = APPROVAL ( #26, 'UNSPECIFIED' ) ;
#58 = EDGE_LOOP ( 'NONE', ( #3, #75 ) ) ;
#59 = DIRECTION ( 'NONE',  ( 0.000000000000000000, 0.000000000000000000, 1.000000000000000000 ) ) ;
#60 = AXIS2_PLACEMENT_3D ( 'NONE', #170, #59, #113 ) ;
#61 = DIRECTION ( 'NONE',  ( -0.000000000000000000, -0.000000000000000000, -1.000000000000000000 ) ) ;
#62 = FACE_OUTER_BOUND ( 'NONE', #58, .T. ) ;
#63 = DATE_AND_TIME ( #8, #52 ) ;
#64 = AXIS2_PLACEMENT_3D ( 'NONE', #129, #80, #101 ) ;
#65 = DIRECTION ( 'NONE',  ( 0.000000000000000000, 0.000000000000000000, 1.000000000000000000 ) ) ;
#66 = CALENDAR_DATE ( 2022, 6, 4 ) ;
#67 = DATE_AND_TIME ( #66, #40 ) ;
#68 = PERSON_AND_ORGANIZATION_ROLE ( 'design_supplier' ) ;
#69 = ORGANIZATION ( 'UNSPECIFIED', 'UNSPECIFIED', '' ) ;
#70 = ADVANCED_BREP_SHAPE_REPRESENTATION ( 'Web Model 19837_19846', ( #120, #161 ), #81 ) ;
#71 = PRODUCT ( 'Web Model 19837_19846', 'Web Model 19837_19846', '', ( #102 ) ) ;
#72 = CC_DESIGN_PERSON_AND_ORGANIZATION_ASSIGNMENT ( #132, #68, ( #135 ) ) ;
#73 = DIRECTION ( 'NONE',  ( -0.000000000000000000, -0.000000000000000000, -1.000000000000000000 ) ) ;
#74 = LOCAL_TIME ( 11, 0, 59.00000000000000000, #25 ) ;
#75 = ORIENTED_EDGE ( 'NONE', *, *, #24, .F. ) ;
#76 = COORDINATED_UNIVERSAL_TIME_OFFSET ( 5, 0, .BEHIND. ) ;
#77 = PRODUCT_RELATED_PRODUCT_CATEGORY ( 'detail', '', ( #71 ) ) ;
#78 = DIRECTION ( 'NONE',  ( 1.000000000000000000, 0.000000000000000000, -0.000000000000000000 ) ) ;
#79 = APPROVAL_ROLE ( '' ) ;
#80 = DIRECTION ( 'NONE',  ( 0.000000000000000000, 0.000000000000000000, 1.000000000000000000 ) ) ;
#81 =( GEOMETRIC_REPRESENTATION_CONTEXT ( 3 ) GLOBAL_UNCERTAINTY_ASSIGNED_CONTEXT ( ( #124 ) ) GLOBAL_UNIT_ASSIGNED_CONTEXT ( ( #145, #89, #19 ) ) REPRESENTATION_CONTEXT ( 'NONE', 'WORKASPACE' ) );
#82 = DATE_AND_TIME ( #23, #99 ) ;
#83 = APPROVAL_DATE_TIME ( #67, #29 ) ;
#84 = COORDINATED_UNIVERSAL_TIME_OFFSET ( 5, 0, .BEHIND. ) ;
#85 = EDGE_CURVE ( 'NONE', #28, #110, #152, .T. ) ;
#86 = CIRCLE ( 'NONE', #64, 12.50000000000000000 ) ;
#87 = VERTEX_POINT ( 'NONE', #157 ) ;
#88 = CC_DESIGN_APPROVAL ( #53, ( #117 ) ) ;
#89 =( NAMED_UNIT ( * ) PLANE_ANGLE_UNIT ( ) SI_UNIT ( $, .RADIAN. ) );
#90 = DIRECTION ( 'NONE',  ( -0.000000000000000000, -0.000000000000000000, -1.000000000000000000 ) ) ;
#91 = PERSON_AND_ORGANIZATION ( #168, #69 ) ;
#92 = AXIS2_PLACEMENT_3D ( 'NONE', #134, #96, #121 ) ;
#93 = APPROVAL_ROLE ( '' ) ;
#94 = DATE_TIME_ROLE ( 'classification_date' ) ;
#95 = VECTOR ( 'NONE', #90, 1000.000000000000000 ) ;
#96 = DIRECTION ( 'NONE',  ( -0.000000000000000000, -0.000000000000000000, -1.000000000000000000 ) ) ;
#97 = APPLICATION_CONTEXT ( 'configuration controlled 3d designs of mechanical parts and assemblies' ) ;
#98 = ORIENTED_EDGE ( 'NONE', *, *, #24, .T. ) ;
#99 = LOCAL_TIME ( 11, 0, 59.00000000000000000, #160 ) ;
#100 = CARTESIAN_POINT ( 'NONE',  ( 12.50000000000000000, 1.530808498934191521E-15, 1.000000000000000000 ) ) ;
#101 = DIRECTION ( 'NONE',  ( 1.000000000000000000, 0.000000000000000000, 0.000000000000000000 ) ) ;
#102 = MECHANICAL_CONTEXT ( 'NONE', #107, 'mechanical' ) ;
#103 = DATE_AND_TIME ( #10, #30 ) ;
#104 = CC_DESIGN_DATE_AND_TIME_ASSIGNMENT ( #103, #106, ( #117 ) ) ;
#105 = CC_DESIGN_APPROVAL ( #57, ( #155 ) ) ;
#106 = DATE_TIME_ROLE ( 'creation_date' ) ;
#107 = APPLICATION_CONTEXT ( 'configuration controlled 3d designs of mechanical parts and assemblies' ) ;
#108 = CC_DESIGN_PERSON_AND_ORGANIZATION_ASSIGNMENT ( #12, #9, ( #117 ) ) ;
#109 = CIRCLE ( 'NONE', #60, 12.50000000000000000 ) ;
#110 = VERTEX_POINT ( 'NONE', #130 ) ;
#111 = ORIENTED_EDGE ( 'NONE', *, *, #18, .F. ) ;
#112 = ADVANCED_FACE ( 'NONE', ( #115 ), #156, .T. ) ;
#113 = DIRECTION ( 'NONE',  ( 1.000000000000000000, 0.000000000000000000, 0.000000000000000000 ) ) ;
#114 = DIRECTION ( 'NONE',  ( 0.000000000000000000, 0.000000000000000000, 1.000000000000000000 ) ) ;
#115 = FACE_OUTER_BOUND ( 'NONE', #165, .T. ) ;
#116 = CARTESIAN_POINT ( 'NONE',  ( 0.000000000000000000, 0.000000000000000000, 1.000000000000000000 ) ) ;
#117 = PRODUCT_DEFINITION ( 'UNKNOWN', '', #135, #142 ) ;
#118 = PERSON_AND_ORGANIZATION ( #168, #69 ) ;
#119 = CC_DESIGN_PERSON_AND_ORGANIZATION_ASSIGNMENT ( #118, #175, ( #155 ) ) ;
#120 = MANIFOLD_SOLID_BREP ( 'Boss-Extrude1', #128 ) ;
#121 = DIRECTION ( 'NONE',  ( -1.000000000000000000, 0.000000000000000000, 0.000000000000000000 ) ) ;
#122 = CC_DESIGN_APPROVAL ( #29, ( #135 ) ) ;
#123 = DIRECTION ( 'NONE',  ( -1.000000000000000000, 0.000000000000000000, 0.000000000000000000 ) ) ;
#124 = UNCERTAINTY_MEASURE_WITH_UNIT (LENGTH_MEASURE( 1.000000000000000082E-05 ), #145, 'distance_accuracy_value', 'NONE');
#125 = DIRECTION ( 'NONE',  ( 0.000000000000000000, 0.000000000000000000, 1.000000000000000000 ) ) ;
#126 = PRODUCT_DEFINITION_SHAPE ( 'NONE', 'NONE',  #117 ) ;
#127 = DIRECTION ( 'NONE',  ( 1.000000000000000000, 0.000000000000000000, 0.000000000000000000 ) ) ;
#128 = CLOSED_SHELL ( 'NONE', ( #11, #7, #112, #36 ) ) ;
#129 = CARTESIAN_POINT ( 'NONE',  ( 0.000000000000000000, 0.000000000000000000, 1.000000000000000000 ) ) ;
#130 = CARTESIAN_POINT ( 'NONE',  ( 12.50000000000000000, 1.530808498934191521E-15, 0.000000000000000000 ) ) ;
#131 = APPROVAL_DATE_TIME ( #82, #57 ) ;
#132 = PERSON_AND_ORGANIZATION ( #168, #69 ) ;
#133 = COORDINATED_UNIVERSAL_TIME_OFFSET ( 5, 0, .BEHIND. ) ;
#134 = CARTESIAN_POINT ( 'NONE',  ( 0.000000000000000000, 0.000000000000000000, 1.000000000000000000 ) ) ;
#135 = PRODUCT_DEFINITION_FORMATION_WITH_SPECIFIED_SOURCE ( 'ANY', '', #71, .NOT_KNOWN. ) ;
#136 = LINE ( 'NONE', #100, #95 ) ;
#137 = EDGE_LOOP ( 'NONE', ( #111, #141, #54, #55 ) ) ;
#138 = CYLINDRICAL_SURFACE ( 'NONE', #17, 12.50000000000000000 ) ;
#139 = EDGE_CURVE ( 'NONE', #87, #28, #169, .T. ) ;
#140 = APPROVAL_PERSON_ORGANIZATION ( #50, #57, #35 ) ;
#141 = ORIENTED_EDGE ( 'NONE', *, *, #147, .F. ) ;
#142 = DESIGN_CONTEXT ( 'detailed design', #97, 'design' ) ;
#143 = DIRECTION ( 'NONE',  ( 1.000000000000000000, 0.000000000000000000, 0.000000000000000000 ) ) ;
#144 = PLANE ( 'NONE',  #37 ) ;
#145 =( LENGTH_UNIT ( ) NAMED_UNIT ( * ) SI_UNIT ( .MILLI., .METRE. ) );
#146 = PERSON_AND_ORGANIZATION ( #168, #69 ) ;
#147 = EDGE_CURVE ( 'NONE', #87, #166, #86, .T. ) ;
#148 = DATE_AND_TIME ( #162, #74 ) ;
#149 = PERSON_AND_ORGANIZATION ( #168, #69 ) ;
#150 = PERSON_AND_ORGANIZATION_ROLE ( 'creator' ) ;
#151 = CC_DESIGN_PERSON_AND_ORGANIZATION_ASSIGNMENT ( #146, #167, ( #71 ) ) ;
#152 = CIRCLE ( 'NONE', #48, 12.50000000000000000 ) ;
#153 = FACE_OUTER_BOUND ( 'NONE', #14, .T. ) ;
#154 = ORIENTED_EDGE ( 'NONE', *, *, #171, .F. ) ;
#155 = SECURITY_CLASSIFICATION ( '', '', #51 ) ;
#156 = PLANE ( 'NONE',  #163 ) ;
#157 = CARTESIAN_POINT ( 'NONE',  ( -12.50000000000000000, 0.000000000000000000, 1.000000000000000000 ) ) ;
#158 = CC_DESIGN_DATE_AND_TIME_ASSIGNMENT ( #148, #94, ( #155 ) ) ;
#159 = CARTESIAN_POINT ( 'NONE',  ( 0.000000000000000000, 0.000000000000000000, 0.000000000000000000 ) ) ;
#160 = COORDINATED_UNIVERSAL_TIME_OFFSET ( 5, 0, .BEHIND. ) ;
#161 = AXIS2_PLACEMENT_3D ( 'NONE', #172, #65, #143 ) ;
#162 = CALENDAR_DATE ( 2022, 6, 4 ) ;
#163 = AXIS2_PLACEMENT_3D ( 'NONE', #116, #114, #173 ) ;
#164 = ORIENTED_EDGE ( 'NONE', *, *, #139, .F. ) ;
#165 = EDGE_LOOP ( 'NONE', ( #27, #41 ) ) ;
#166 = VERTEX_POINT ( 'NONE', #34 ) ;
#167 = PERSON_AND_ORGANIZATION_ROLE ( 'design_owner' ) ;
#168 = PERSON ( 'UNSPECIFIED', 'UNSPECIFIED', 'UNSPECIFIED', ('UNSPECIFIED'), ('UNSPECIFIED'), ('UNSPECIFIED') ) ;
#169 = LINE ( 'NONE', #31, #22 ) ;
#170 = CARTESIAN_POINT ( 'NONE',  ( 0.000000000000000000, 0.000000000000000000, 1.000000000000000000 ) ) ;
#171 = EDGE_CURVE ( 'NONE', #166, #87, #109, .T. ) ;
#172 = CARTESIAN_POINT ( 'NONE',  ( 0.000000000000000000, 0.000000000000000000, 0.000000000000000000 ) ) ;
#173 = DIRECTION ( 'NONE',  ( 1.000000000000000000, 0.000000000000000000, -0.000000000000000000 ) ) ;
#174 = APPROVAL_DATE_TIME ( #63, #53 ) ;
#175 = PERSON_AND_ORGANIZATION_ROLE ( 'classification_officer' ) ;
ENDSEC;
END-ISO-10303-21;
