ISO-10303-21;
HEADER;
FILE_DESCRIPTION (( 'STEP AP214' ),
    '1' );
FILE_NAME ('4910-E0W.STEP',
    '2009-12-21T17:15:49',
    ( ' ' ),
    ( ' ' ),
    'SwSTEP 2.0',
    'SolidWorks 2009',
    '' );
FILE_SCHEMA (( 'AUTOMOTIVE_DESIGN' ));
ENDSEC;

DATA;
#1 = DIRECTION ( 'NONE',  ( -1.000000000000000000, 1.224606353822377300E-016, 0.0000000000000000000 ) ) ;
#2 = CARTESIAN_POINT ( 'NONE',  ( 0.0000000000000000000, 0.0000000000000000000, -248.0741366884648200 ) ) ;
#3 = VERTEX_POINT ( 'NONE', #121 ) ;
#4 = ORIENTED_EDGE ( 'NONE', *, *, #77, .T. ) ;
#5 = EDGE_CURVE ( 'NONE', #66, #74, #108, .T. ) ;
#6 = DIRECTION ( 'NONE',  ( -1.224606353822377300E-016, -1.000000000000000000, 0.0000000000000000000 ) ) ;
#7 = ORIENTED_EDGE ( 'NONE', *, *, #11, .F. ) ;
#8 = ADVANCED_FACE ( 'NONE', ( #127 ), #128, .T. ) ;
#9 = CARTESIAN_POINT ( 'NONE',  ( 0.0000000000000000000, 0.0000000000000000000, 9.330967066376240700 ) ) ;
#10 = ORIENTED_EDGE ( 'NONE', *, *, #22, .T. ) ;
#11 = EDGE_CURVE ( 'NONE', #89, #66, #112, .T. ) ;
#12 = DIRECTION ( 'NONE',  ( -1.000000000000000000, 0.0000000000000000000, 0.0000000000000000000 ) ) ;
#13 = ORIENTED_EDGE ( 'NONE', *, *, #5, .F. ) ;
#14 = SPHERICAL_SURFACE ( 'NONE', #18, 95.10999999999999900 ) ;
#15 = EDGE_LOOP ( 'NONE', ( #4, #10, #19, #95 ) ) ;
#16 = EDGE_CURVE ( 'NONE', #3, #58, #23, .T. ) ;
#17 = CARTESIAN_POINT ( 'NONE',  ( 0.0000000000000000000, 0.0000000000000000000, -96.18413668846481800 ) ) ;
#18 = AXIS2_PLACEMENT_3D ( 'NONE', #17, #12, #41 ) ;
#19 = ORIENTED_EDGE ( 'NONE', *, *, #16, .T. ) ;
#20 = AXIS2_PLACEMENT_3D ( 'NONE', #2, #1, #6 ) ;
#21 = DIRECTION ( 'NONE',  ( 1.000000000000000000, 0.0000000000000000000, 0.0000000000000000000 ) ) ;
#22 = EDGE_CURVE ( 'NONE', #97, #3, #182, .T. ) ;
#23 = CIRCLE ( 'NONE', #20, 250.0000000000000000 ) ;
#24 = EDGE_LOOP ( 'NONE', ( #7, #67, #98, #56 ) ) ;
#25 = DIRECTION ( 'NONE',  ( -0.0000000000000000000, -0.0000000000000000000, 1.000000000000000000 ) ) ;
#26 = STYLED_ITEM ( 'NONE', ( #36 ), #35 ) ;
#27 = FILL_AREA_STYLE ('',( #40 ) ) ;
#28 = SURFACE_STYLE_FILL_AREA ( #27 ) ;
#29 = SURFACE_SIDE_STYLE ('',( #28 ) ) ;
#30 = PRESENTATION_LAYER_ASSIGNMENT (  '', '', ( #26 ) ) ;
#31 = MECHANICAL_DESIGN_GEOMETRIC_PRESENTATION_REPRESENTATION (  '', ( #26 ), #43 ) ;
#32 = DIRECTION ( 'NONE',  ( 1.000000000000000000, 0.0000000000000000000, 0.0000000000000000000 ) ) ;
#33 =( NAMED_UNIT ( * ) SI_UNIT ( $, .STERADIAN. ) SOLID_ANGLE_UNIT ( ) );
#34 =( NAMED_UNIT ( * ) PLANE_ANGLE_UNIT ( ) SI_UNIT ( $, .RADIAN. ) );
#35 = ADVANCED_BREP_SHAPE_REPRESENTATION ( '4910-E0W', ( #93, #320 ), #314 ) ;
#36 = PRESENTATION_STYLE_ASSIGNMENT (( #37 ) ) ;
#37 = SURFACE_STYLE_USAGE ( .BOTH. , #29 ) ;
#38 =( LENGTH_UNIT ( ) NAMED_UNIT ( * ) SI_UNIT ( .MILLI., .METRE. ) );
#39 = COLOUR_RGB ( '',0.7960784313725489700, 0.8235294117647058400, 0.9372549019607843100 ) ;
#40 = FILL_AREA_STYLE_COLOUR ( '', #39 ) ;
#41 = DIRECTION ( 'NONE',  ( 0.0000000000000000000, 1.000000000000000000, 0.0000000000000000000 ) ) ;
#42 = UNCERTAINTY_MEASURE_WITH_UNIT (LENGTH_MEASURE( 1.000000000000000100E-005 ), #38, 'distance_accuracy_value', 'NONE');
#43 =( GEOMETRIC_REPRESENTATION_CONTEXT ( 3 ) GLOBAL_UNCERTAINTY_ASSIGNED_CONTEXT ( ( #42 ) ) GLOBAL_UNIT_ASSIGNED_CONTEXT ( ( #38, #34, #33 ) ) REPRESENTATION_CONTEXT ( 'NONE', 'WORKASPACE' ) );
#44 = PRODUCT_DEFINITION_CONTEXT ( 'detailed design', #46, 'design' ) ;
#45 = APPLICATION_PROTOCOL_DEFINITION ( 'draft international standard', 'automotive_design', 1998, #46 ) ;
#46 = APPLICATION_CONTEXT ( 'automotive_design' ) ;
#47 = PRODUCT ( '4910-E0W', '4910-E0W', '', ( #50 ) ) ;
#48 = APPLICATION_CONTEXT ( 'automotive_design' ) ;
#49 = APPLICATION_PROTOCOL_DEFINITION ( 'draft international standard', 'automotive_design', 1998, #48 ) ;
#50 = PRODUCT_CONTEXT ( 'NONE', #48, 'mechanical' ) ;
#51 = PRODUCT_DEFINITION ( 'UNKNOWN', '', #65, #44 ) ;
#52 = ORIENTED_EDGE ( 'NONE', *, *, #5, .T. ) ;
#53 = ORIENTED_EDGE ( 'NONE', *, *, #88, .F. ) ;
#54 = ADVANCED_FACE ( 'NONE', ( #157 ), #166, .T. ) ;
#55 = EDGE_LOOP ( 'NONE', ( #83, #84, #106, #76, #72, #13 ) ) ;
#56 = ORIENTED_EDGE ( 'NONE', *, *, #57, .F. ) ;
#57 = EDGE_CURVE ( 'NONE', #66, #100, #147, .T. ) ;
#58 = VERTEX_POINT ( 'NONE', #148 ) ;
#59 = EDGE_LOOP ( 'NONE', ( #103, #87, #75, #70 ) ) ;
#60 = ORIENTED_EDGE ( 'NONE', *, *, #80, .F. ) ;
#61 = ORIENTED_EDGE ( 'NONE', *, *, #99, .T. ) ;
#62 = EDGE_LOOP ( 'NONE', ( #63, #60, #86, #61 ) ) ;
#63 = ORIENTED_EDGE ( 'NONE', *, *, #68, .F. ) ;
#64 = PRODUCT_RELATED_PRODUCT_CATEGORY ( 'part', '', ( #47 ) ) ;
#65 = PRODUCT_DEFINITION_FORMATION_WITH_SPECIFIED_SOURCE ( 'ANY', '', #47, .NOT_KNOWN. ) ;
#66 = VERTEX_POINT ( 'NONE', #171 ) ;
#67 = ORIENTED_EDGE ( 'NONE', *, *, #68, .T. ) ;
#68 = EDGE_CURVE ( 'NONE', #89, #69, #188, .T. ) ;
#69 = VERTEX_POINT ( 'NONE', #177 ) ;
#70 = ORIENTED_EDGE ( 'NONE', *, *, #101, .T. ) ;
#71 = ADVANCED_FACE ( 'NONE', ( #176 ), #195, .T. ) ;
#72 = ORIENTED_EDGE ( 'NONE', *, *, #73, .F. ) ;
#73 = EDGE_CURVE ( 'NONE', #74, #78, #233, .T. ) ;
#74 = VERTEX_POINT ( 'NONE', #220 ) ;
#75 = ORIENTED_EDGE ( 'NONE', *, *, #73, .T. ) ;
#76 = ORIENTED_EDGE ( 'NONE', *, *, #77, .F. ) ;
#77 = EDGE_CURVE ( 'NONE', #78, #97, #221, .T. ) ;
#78 = VERTEX_POINT ( 'NONE', #211 ) ;
#79 = ORIENTED_EDGE ( 'NONE', *, *, #80, .T. ) ;
#80 = EDGE_CURVE ( 'NONE', #105, #89, #223, .T. ) ;
#81 = ORIENTED_EDGE ( 'NONE', *, *, #11, .T. ) ;
#82 = ADVANCED_FACE ( 'NONE', ( #224 ), #200, .F. ) ;
#83 = ORIENTED_EDGE ( 'NONE', *, *, #57, .T. ) ;
#84 = ORIENTED_EDGE ( 'NONE', *, *, #104, .T. ) ;
#85 = CLOSED_SHELL ( 'NONE', ( #94, #54, #8, #102, #71, #82 ) ) ;
#86 = ORIENTED_EDGE ( 'NONE', *, *, #104, .F. ) ;
#87 = ORIENTED_EDGE ( 'NONE', *, *, #88, .T. ) ;
#88 = EDGE_CURVE ( 'NONE', #3, #74, #258, .T. ) ;
#89 = VERTEX_POINT ( 'NONE', #239 ) ;
#90 = EDGE_LOOP ( 'NONE', ( #91, #79, #81, #52, #53, #92 ) ) ;
#91 = ORIENTED_EDGE ( 'NONE', *, *, #96, .F. ) ;
#92 = ORIENTED_EDGE ( 'NONE', *, *, #22, .F. ) ;
#93 = MANIFOLD_SOLID_BREP ( 'NONE', #85 ) ;
#94 = ADVANCED_FACE ( 'NONE', ( #248 ), #14, .F. ) ;
#95 = ORIENTED_EDGE ( 'NONE', *, *, #101, .F. ) ;
#96 = EDGE_CURVE ( 'NONE', #105, #97, #273, .T. ) ;
#97 = VERTEX_POINT ( 'NONE', #285 ) ;
#98 = ORIENTED_EDGE ( 'NONE', *, *, #99, .F. ) ;
#99 = EDGE_CURVE ( 'NONE', #100, #69, #287, .T. ) ;
#100 = VERTEX_POINT ( 'NONE', #290 ) ;
#101 = EDGE_CURVE ( 'NONE', #78, #58, #291, .T. ) ;
#102 = ADVANCED_FACE ( 'NONE', ( #304 ), #279, .T. ) ;
#103 = ORIENTED_EDGE ( 'NONE', *, *, #16, .F. ) ;
#104 = EDGE_CURVE ( 'NONE', #100, #105, #299, .T. ) ;
#105 = VERTEX_POINT ( 'NONE', #313 ) ;
#106 = ORIENTED_EDGE ( 'NONE', *, *, #96, .T. ) ;
#107 = DIRECTION ( 'NONE',  ( -0.0000000000000000000, -0.0000000000000000000, 1.000000000000000000 ) ) ;
#108 = LINE ( 'NONE', #119, #126 ) ;
#109 = CARTESIAN_POINT ( 'NONE',  ( 0.0000000000000000000, 0.0000000000000000000, -248.0741366884648200 ) ) ;
#110 = AXIS2_PLACEMENT_3D ( 'NONE', #109, #116, #115 ) ;
#111 = AXIS2_PLACEMENT_3D ( 'NONE', #132, #131, #130 ) ;
#112 = CIRCLE ( 'NONE', #111, 12.70000000000000300 ) ;
#113 =( GEOMETRIC_REPRESENTATION_CONTEXT ( 3 ) GLOBAL_UNCERTAINTY_ASSIGNED_CONTEXT ( ( #120 ) ) GLOBAL_UNIT_ASSIGNED_CONTEXT ( ( #118, #135, #134 ) ) REPRESENTATION_CONTEXT ( 'NONE', 'WORKASPACE' ) );
#114 = PRESENTATION_STYLE_ASSIGNMENT (( #122 ) ) ;
#115 = DIRECTION ( 'NONE',  ( 0.0000000000000000000, 1.000000000000000000, 0.0000000000000000000 ) ) ;
#116 = DIRECTION ( 'NONE',  ( -1.000000000000000000, 0.0000000000000000000, 0.0000000000000000000 ) ) ;
#117 = FILL_AREA_STYLE_COLOUR ( '', #125 ) ;
#118 =( LENGTH_UNIT ( ) NAMED_UNIT ( * ) SI_UNIT ( .MILLI., .METRE. ) );
#119 = CARTESIAN_POINT ( 'NONE',  ( 12.70000000000000100, 0.0000000000000000000, 9.330967066376240700 ) ) ;
#120 = UNCERTAINTY_MEASURE_WITH_UNIT (LENGTH_MEASURE( 1.000000000000000100E-005 ), #118, 'distance_accuracy_value', 'NONE');
#121 = CARTESIAN_POINT ( 'NONE',  ( -1.555250069354439400E-015, -12.70000000000016400, 1.603074926852598600 ) ) ;
#122 = SURFACE_STYLE_USAGE ( .BOTH. , #123 ) ;
#123 = SURFACE_SIDE_STYLE ('',( #133 ) ) ;
#124 = STYLED_ITEM ( 'NONE', ( #114 ), #8 ) ;
#125 = COLOUR_RGB ( '',0.9568627450980391500, 0.9490196078431372100, 0.9607843137254902200 ) ;
#126 = VECTOR ( 'NONE', #107, 1000.000000000000000 ) ;
#127 = FACE_OUTER_BOUND ( 'NONE', #15, .T. ) ;
#128 = SPHERICAL_SURFACE ( 'NONE', #110, 250.0000000000000000 ) ;
#129 = FILL_AREA_STYLE ('',( #117 ) ) ;
#130 = DIRECTION ( 'NONE',  ( 1.000000000000000000, 0.0000000000000000000, 0.0000000000000000000 ) ) ;
#131 = DIRECTION ( 'NONE',  ( -0.0000000000000000000, -0.0000000000000000000, 1.000000000000000000 ) ) ;
#132 = CARTESIAN_POINT ( 'NONE',  ( 0.0000000000000000000, 0.0000000000000000000, -1.925863311535186400 ) ) ;
#133 = SURFACE_STYLE_FILL_AREA ( #129 ) ;
#134 =( NAMED_UNIT ( * ) SI_UNIT ( $, .STERADIAN. ) SOLID_ANGLE_UNIT ( ) );
#135 =( NAMED_UNIT ( * ) PLANE_ANGLE_UNIT ( ) SI_UNIT ( $, .RADIAN. ) );
#136 = MECHANICAL_DESIGN_GEOMETRIC_PRESENTATION_REPRESENTATION (  '', ( #124 ), #113 ) ;
#137 = PRESENTATION_LAYER_ASSIGNMENT (  '', '', ( #124 ) ) ;
#138 = MECHANICAL_DESIGN_GEOMETRIC_PRESENTATION_REPRESENTATION (  '', ( #185 ), #189 ) ;
#139 = PRESENTATION_LAYER_ASSIGNMENT (  '', '', ( #185 ) ) ;
#140 =( GEOMETRIC_REPRESENTATION_CONTEXT ( 3 ) GLOBAL_UNCERTAINTY_ASSIGNED_CONTEXT ( ( #159 ) ) GLOBAL_UNIT_ASSIGNED_CONTEXT ( ( #190, #165, #160 ) ) REPRESENTATION_CONTEXT ( 'NONE', 'WORKASPACE' ) );
#141 = DIRECTION ( 'NONE',  ( 1.000000000000000000, 0.0000000000000000000, 0.0000000000000000000 ) ) ;
#142 = DIRECTION ( 'NONE',  ( -0.0000000000000000000, -0.0000000000000000000, 1.000000000000000000 ) ) ;
#143 = CARTESIAN_POINT ( 'NONE',  ( 0.0000000000000000000, 0.0000000000000000000, -1.925863311535186400 ) ) ;
#144 = DIRECTION ( 'NONE',  ( -0.0000000000000000000, -0.0000000000000000000, 1.000000000000000000 ) ) ;
#145 = CARTESIAN_POINT ( 'NONE',  ( 0.0000000000000000000, 0.0000000000000000000, 9.330967066376240700 ) ) ;
#146 = AXIS2_PLACEMENT_3D ( 'NONE', #143, #142, #141 ) ;
#147 = CIRCLE ( 'NONE', #146, 12.70000000000000300 ) ;
#148 = CARTESIAN_POINT ( 'NONE',  ( 0.0000000000000000000, 1.530757942277971600E-014, 1.925863311535186400 ) ) ;
#149 = AXIS2_PLACEMENT_3D ( 'NONE', #145, #144, #162 ) ;
#150 = STYLED_ITEM ( 'NONE', ( #151 ), #71 ) ;
#151 = PRESENTATION_STYLE_ASSIGNMENT (( #152 ) ) ;
#152 = SURFACE_STYLE_USAGE ( .BOTH. , #153 ) ;
#153 = SURFACE_SIDE_STYLE ('',( #154 ) ) ;
#154 = SURFACE_STYLE_FILL_AREA ( #155 ) ;
#155 = FILL_AREA_STYLE ('',( #156 ) ) ;
#156 = FILL_AREA_STYLE_COLOUR ( '', #175 ) ;
#157 = FACE_OUTER_BOUND ( 'NONE', #55, .T. ) ;
#158 = DIRECTION ( 'NONE',  ( 1.000000000000000000, 0.0000000000000000000, 0.0000000000000000000 ) ) ;
#159 = UNCERTAINTY_MEASURE_WITH_UNIT (LENGTH_MEASURE( 1.000000000000000100E-005 ), #190, 'distance_accuracy_value', 'NONE');
#160 =( NAMED_UNIT ( * ) SI_UNIT ( $, .STERADIAN. ) SOLID_ANGLE_UNIT ( ) );
#161 = AXIS2_PLACEMENT_3D ( 'NONE', #174, #173, #158 ) ;
#162 = DIRECTION ( 'NONE',  ( 1.000000000000000000, 0.0000000000000000000, 0.0000000000000000000 ) ) ;
#163 = UNCERTAINTY_MEASURE_WITH_UNIT (LENGTH_MEASURE( 1.000000000000000100E-005 ), #172, 'distance_accuracy_value', 'NONE');
#164 =( NAMED_UNIT ( * ) PLANE_ANGLE_UNIT ( ) SI_UNIT ( $, .RADIAN. ) );
#165 =( NAMED_UNIT ( * ) PLANE_ANGLE_UNIT ( ) SI_UNIT ( $, .RADIAN. ) );
#166 = CYLINDRICAL_SURFACE ( 'NONE', #149, 12.70000000000000100 ) ;
#167 = SURFACE_STYLE_USAGE ( .BOTH. , #168 ) ;
#168 = SURFACE_SIDE_STYLE ('',( #180 ) ) ;
#169 =( NAMED_UNIT ( * ) SI_UNIT ( $, .STERADIAN. ) SOLID_ANGLE_UNIT ( ) );
#170 = CARTESIAN_POINT ( 'NONE',  ( 0.0000000000000000000, 0.0000000000000000000, -96.18413668846481800 ) ) ;
#171 = CARTESIAN_POINT ( 'NONE',  ( 12.70000000000000300, 0.0000000000000000000, -1.925863311535186400 ) ) ;
#172 =( LENGTH_UNIT ( ) NAMED_UNIT ( * ) SI_UNIT ( .MILLI., .METRE. ) );
#173 = DIRECTION ( 'NONE',  ( -0.0000000000000000000, -0.0000000000000000000, 1.000000000000000000 ) ) ;
#174 = CARTESIAN_POINT ( 'NONE',  ( 0.0000000000000000000, 0.0000000000000000000, 1.603074926852592300 ) ) ;
#175 = COLOUR_RGB ( '',0.9568627450980391500, 0.9490196078431372100, 0.9607843137254902200 ) ;
#176 = FACE_OUTER_BOUND ( 'NONE', #90, .T. ) ;
#177 = CARTESIAN_POINT ( 'NONE',  ( 0.0000000000000000000, 5.823615515602314800E-015, -1.074136688464816200 ) ) ;
#178 = DIRECTION ( 'NONE',  ( -1.224606353822377300E-016, -1.000000000000000000, 0.0000000000000000000 ) ) ;
#179 = DIRECTION ( 'NONE',  ( -1.000000000000000000, 1.224606353822377300E-016, 0.0000000000000000000 ) ) ;
#180 = SURFACE_STYLE_FILL_AREA ( #181 ) ;
#181 = FILL_AREA_STYLE ('',( #183 ) ) ;
#182 = CIRCLE ( 'NONE', #161, 12.69999999999999900 ) ;
#183 = FILL_AREA_STYLE_COLOUR ( '', #184 ) ;
#184 = COLOUR_RGB ( '',0.9568627450980391500, 0.9490196078431372100, 0.9607843137254902200 ) ;
#185 = STYLED_ITEM ( 'NONE', ( #186 ), #54 ) ;
#186 = PRESENTATION_STYLE_ASSIGNMENT (( #167 ) ) ;
#187 = AXIS2_PLACEMENT_3D ( 'NONE', #170, #179, #178 ) ;
#188 = CIRCLE ( 'NONE', #187, 95.10999999999999900 ) ;
#189 =( GEOMETRIC_REPRESENTATION_CONTEXT ( 3 ) GLOBAL_UNCERTAINTY_ASSIGNED_CONTEXT ( ( #163 ) ) GLOBAL_UNIT_ASSIGNED_CONTEXT ( ( #172, #164, #169 ) ) REPRESENTATION_CONTEXT ( 'NONE', 'WORKASPACE' ) );
#190 =( LENGTH_UNIT ( ) NAMED_UNIT ( * ) SI_UNIT ( .MILLI., .METRE. ) );
#191 = MECHANICAL_DESIGN_GEOMETRIC_PRESENTATION_REPRESENTATION (  '', ( #150 ), #140 ) ;
#192 = PRESENTATION_LAYER_ASSIGNMENT (  '', '', ( #150 ) ) ;
#193 = SHAPE_DEFINITION_REPRESENTATION ( #194, #35 ) ;
#194 = PRODUCT_DEFINITION_SHAPE ( 'NONE', 'NONE',  #51 ) ;
#195 = CYLINDRICAL_SURFACE ( 'NONE', #196, 12.70000000000000100 ) ;
#196 = AXIS2_PLACEMENT_3D ( 'NONE', #9, #25, #21 ) ;
#197 = DIRECTION ( 'NONE',  ( -0.0000000000000000000, -0.0000000000000000000, 1.000000000000000000 ) ) ;
#198 =( NAMED_UNIT ( * ) PLANE_ANGLE_UNIT ( ) SI_UNIT ( $, .RADIAN. ) );
#199 = AXIS2_PLACEMENT_3D ( 'NONE', #234, #210, #209 ) ;
#200 = SPHERICAL_SURFACE ( 'NONE', #232, 95.10999999999999900 ) ;
#201 =( GEOMETRIC_REPRESENTATION_CONTEXT ( 3 ) GLOBAL_UNCERTAINTY_ASSIGNED_CONTEXT ( ( #212 ) ) GLOBAL_UNIT_ASSIGNED_CONTEXT ( ( #218, #198, #213 ) ) REPRESENTATION_CONTEXT ( 'NONE', 'WORKASPACE' ) );
#202 = FILL_AREA_STYLE_COLOUR ( '', #228 ) ;
#203 = DIRECTION ( 'NONE',  ( 1.000000000000000000, 0.0000000000000000000, 0.0000000000000000000 ) ) ;
#204 = DIRECTION ( 'NONE',  ( -0.0000000000000000000, -0.0000000000000000000, 1.000000000000000000 ) ) ;
#205 = AXIS2_PLACEMENT_3D ( 'NONE', #222, #204, #203 ) ;
#206 = CARTESIAN_POINT ( 'NONE',  ( 0.0000000000000000000, 0.0000000000000000000, 1.603074926852592300 ) ) ;
#207 = DIRECTION ( 'NONE',  ( 1.000000000000000000, 0.0000000000000000000, 0.0000000000000000000 ) ) ;
#208 = AXIS2_PLACEMENT_3D ( 'NONE', #206, #197, #207 ) ;
#209 = DIRECTION ( 'NONE',  ( 1.000000000000000000, 0.0000000000000000000, 0.0000000000000000000 ) ) ;
#210 = DIRECTION ( 'NONE',  ( -0.0000000000000000000, -0.0000000000000000000, 1.000000000000000000 ) ) ;
#211 = CARTESIAN_POINT ( 'NONE',  ( 0.0000000000000000000, 12.70000000000016400, 1.603074926852598600 ) ) ;
#212 = UNCERTAINTY_MEASURE_WITH_UNIT (LENGTH_MEASURE( 1.000000000000000100E-005 ), #218, 'distance_accuracy_value', 'NONE');
#213 =( NAMED_UNIT ( * ) SI_UNIT ( $, .STERADIAN. ) SOLID_ANGLE_UNIT ( ) );
#214 = PRESENTATION_LAYER_ASSIGNMENT (  '', '', ( #215 ) ) ;
#215 = STYLED_ITEM ( 'NONE', ( #216 ), #82 ) ;
#216 = PRESENTATION_STYLE_ASSIGNMENT (( #217 ) ) ;
#217 = SURFACE_STYLE_USAGE ( .BOTH. , #225 ) ;
#218 =( LENGTH_UNIT ( ) NAMED_UNIT ( * ) SI_UNIT ( .MILLI., .METRE. ) );
#219 = MECHANICAL_DESIGN_GEOMETRIC_PRESENTATION_REPRESENTATION (  '', ( #215 ), #201 ) ;
#220 = CARTESIAN_POINT ( 'NONE',  ( 12.69999999999999900, 0.0000000000000000000, 1.603074926852592300 ) ) ;
#221 = CIRCLE ( 'NONE', #199, 12.69999999999999900 ) ;
#222 = CARTESIAN_POINT ( 'NONE',  ( 0.0000000000000000000, 0.0000000000000000000, -1.925863311535186400 ) ) ;
#223 = CIRCLE ( 'NONE', #205, 12.70000000000000300 ) ;
#224 = FACE_OUTER_BOUND ( 'NONE', #62, .T. ) ;
#225 = SURFACE_SIDE_STYLE ('',( #226 ) ) ;
#226 = SURFACE_STYLE_FILL_AREA ( #227 ) ;
#227 = FILL_AREA_STYLE ('',( #202 ) ) ;
#228 = COLOUR_RGB ( '',0.9568627450980391500, 0.9490196078431372100, 0.9607843137254902200 ) ;
#229 = DIRECTION ( 'NONE',  ( 0.0000000000000000000, 1.000000000000000000, 0.0000000000000000000 ) ) ;
#230 = DIRECTION ( 'NONE',  ( -1.000000000000000000, 0.0000000000000000000, 0.0000000000000000000 ) ) ;
#231 = CARTESIAN_POINT ( 'NONE',  ( 0.0000000000000000000, 0.0000000000000000000, -96.18413668846481800 ) ) ;
#232 = AXIS2_PLACEMENT_3D ( 'NONE', #231, #230, #229 ) ;
#233 = CIRCLE ( 'NONE', #208, 12.69999999999999900 ) ;
#234 = CARTESIAN_POINT ( 'NONE',  ( 0.0000000000000000000, 0.0000000000000000000, 1.603074926852592300 ) ) ;
#235 = STYLED_ITEM ( 'NONE', ( #236 ), #93 ) ;
#236 = PRESENTATION_STYLE_ASSIGNMENT (( #237 ) ) ;
#237 = SURFACE_STYLE_USAGE ( .BOTH. , #238 ) ;
#238 = SURFACE_SIDE_STYLE ('',( #253 ) ) ;
#239 = CARTESIAN_POINT ( 'NONE',  ( -1.555250069354414300E-015, -12.69999999999996200, -1.925863311535179500 ) ) ;
#240 = PRESENTATION_LAYER_ASSIGNMENT (  '', '', ( #241 ) ) ;
#241 = STYLED_ITEM ( 'NONE', ( #242 ), #94 ) ;
#242 = PRESENTATION_STYLE_ASSIGNMENT (( #243 ) ) ;
#243 = SURFACE_STYLE_USAGE ( .BOTH. , #244 ) ;
#244 = SURFACE_SIDE_STYLE ('',( #245 ) ) ;
#245 = SURFACE_STYLE_FILL_AREA ( #246 ) ;
#246 = FILL_AREA_STYLE ('',( #256 ) ) ;
#247 = COLOUR_RGB ( '',0.9568627450980391500, 0.9490196078431372100, 0.9607843137254902200 ) ;
#248 = FACE_OUTER_BOUND ( 'NONE', #24, .T. ) ;
#249 = DIRECTION ( 'NONE',  ( -0.0000000000000000000, -0.0000000000000000000, 1.000000000000000000 ) ) ;
#250 =( LENGTH_UNIT ( ) NAMED_UNIT ( * ) SI_UNIT ( .MILLI., .METRE. ) );
#251 = MECHANICAL_DESIGN_GEOMETRIC_PRESENTATION_REPRESENTATION (  '', ( #235 ), #257 ) ;
#252 = PRESENTATION_LAYER_ASSIGNMENT (  '', '', ( #235 ) ) ;
#253 = SURFACE_STYLE_FILL_AREA ( #254 ) ;
#254 = FILL_AREA_STYLE ('',( #255 ) ) ;
#255 = FILL_AREA_STYLE_COLOUR ( '', #260 ) ;
#256 = FILL_AREA_STYLE_COLOUR ( '', #247 ) ;
#257 =( GEOMETRIC_REPRESENTATION_CONTEXT ( 3 ) GLOBAL_UNCERTAINTY_ASSIGNED_CONTEXT ( ( #261 ) ) GLOBAL_UNIT_ASSIGNED_CONTEXT ( ( #250, #266, #262 ) ) REPRESENTATION_CONTEXT ( 'NONE', 'WORKASPACE' ) );
#258 = CIRCLE ( 'NONE', #271, 12.69999999999999900 ) ;
#259 = DIRECTION ( 'NONE',  ( 1.000000000000000000, 0.0000000000000000000, 0.0000000000000000000 ) ) ;
#260 = COLOUR_RGB ( '',0.7960784313725489700, 0.8235294117647058400, 0.9372549019607843100 ) ;
#261 = UNCERTAINTY_MEASURE_WITH_UNIT (LENGTH_MEASURE( 1.000000000000000100E-005 ), #250, 'distance_accuracy_value', 'NONE');
#262 =( NAMED_UNIT ( * ) SI_UNIT ( $, .STERADIAN. ) SOLID_ANGLE_UNIT ( ) );
#263 =( NAMED_UNIT ( * ) SI_UNIT ( $, .STERADIAN. ) SOLID_ANGLE_UNIT ( ) );
#264 =( NAMED_UNIT ( * ) PLANE_ANGLE_UNIT ( ) SI_UNIT ( $, .RADIAN. ) );
#265 = UNCERTAINTY_MEASURE_WITH_UNIT (LENGTH_MEASURE( 1.000000000000000100E-005 ), #268, 'distance_accuracy_value', 'NONE');
#266 =( NAMED_UNIT ( * ) PLANE_ANGLE_UNIT ( ) SI_UNIT ( $, .RADIAN. ) );
#267 = CARTESIAN_POINT ( 'NONE',  ( 0.0000000000000000000, 0.0000000000000000000, 1.603074926852592300 ) ) ;
#268 =( LENGTH_UNIT ( ) NAMED_UNIT ( * ) SI_UNIT ( .MILLI., .METRE. ) );
#269 = MECHANICAL_DESIGN_GEOMETRIC_PRESENTATION_REPRESENTATION (  '', ( #241 ), #270 ) ;
#270 =( GEOMETRIC_REPRESENTATION_CONTEXT ( 3 ) GLOBAL_UNCERTAINTY_ASSIGNED_CONTEXT ( ( #265 ) ) GLOBAL_UNIT_ASSIGNED_CONTEXT ( ( #268, #264, #263 ) ) REPRESENTATION_CONTEXT ( 'NONE', 'WORKASPACE' ) );
#271 = AXIS2_PLACEMENT_3D ( 'NONE', #267, #249, #259 ) ;
#272 = SURFACE_STYLE_USAGE ( .BOTH. , #292 ) ;
#273 = LINE ( 'NONE', #309, #284 ) ;
#274 = DIRECTION ( 'NONE',  ( -1.000000000000000000, 0.0000000000000000000, 0.0000000000000000000 ) ) ;
#275 = CARTESIAN_POINT ( 'NONE',  ( 0.0000000000000000000, 0.0000000000000000000, -248.0741366884648200 ) ) ;
#276 = AXIS2_PLACEMENT_3D ( 'NONE', #275, #274, #300 ) ;
#277 = AXIS2_PLACEMENT_3D ( 'NONE', #308, #280, #283 ) ;
#278 =( LENGTH_UNIT ( ) NAMED_UNIT ( * ) SI_UNIT ( .MILLI., .METRE. ) );
#279 = SPHERICAL_SURFACE ( 'NONE', #276, 250.0000000000000000 ) ;
#280 = DIRECTION ( 'NONE',  ( 1.000000000000000000, 0.0000000000000000000, 0.0000000000000000000 ) ) ;
#281 = PRESENTATION_STYLE_ASSIGNMENT (( #272 ) ) ;
#282 = FILL_AREA_STYLE_COLOUR ( '', #312 ) ;
#283 = DIRECTION ( 'NONE',  ( 0.0000000000000000000, 0.0000000000000000000, -1.000000000000000000 ) ) ;
#284 = VECTOR ( 'NONE', #286, 1000.000000000000000 ) ;
#285 = CARTESIAN_POINT ( 'NONE',  ( -12.69999999999999900, 1.555250069354419300E-015, 1.603074926852592300 ) ) ;
#286 = DIRECTION ( 'NONE',  ( -0.0000000000000000000, -0.0000000000000000000, 1.000000000000000000 ) ) ;
#287 = CIRCLE ( 'NONE', #288, 95.10999999999999900 ) ;
#288 = AXIS2_PLACEMENT_3D ( 'NONE', #293, #289, #294 ) ;
#289 = DIRECTION ( 'NONE',  ( 1.000000000000000000, -0.0000000000000000000, 0.0000000000000000000 ) ) ;
#290 = CARTESIAN_POINT ( 'NONE',  ( 0.0000000000000000000, 12.69999999999996200, -1.925863311535179500 ) ) ;
#291 = CIRCLE ( 'NONE', #277, 249.9999999999999700 ) ;
#292 = SURFACE_SIDE_STYLE ('',( #301 ) ) ;
#293 = CARTESIAN_POINT ( 'NONE',  ( 0.0000000000000000000, 0.0000000000000000000, -96.18413668846481800 ) ) ;
#294 = DIRECTION ( 'NONE',  ( 0.0000000000000000000, 0.0000000000000000000, -1.000000000000000000 ) ) ;
#295 =( GEOMETRIC_REPRESENTATION_CONTEXT ( 3 ) GLOBAL_UNCERTAINTY_ASSIGNED_CONTEXT ( ( #311 ) ) GLOBAL_UNIT_ASSIGNED_CONTEXT ( ( #278, #305, #310 ) ) REPRESENTATION_CONTEXT ( 'NONE', 'WORKASPACE' ) );
#296 = DIRECTION ( 'NONE',  ( -0.0000000000000000000, -0.0000000000000000000, 1.000000000000000000 ) ) ;
#297 = CARTESIAN_POINT ( 'NONE',  ( 0.0000000000000000000, 0.0000000000000000000, -1.925863311535186400 ) ) ;
#298 = AXIS2_PLACEMENT_3D ( 'NONE', #297, #296, #32 ) ;
#299 = CIRCLE ( 'NONE', #298, 12.70000000000000300 ) ;
#300 = DIRECTION ( 'NONE',  ( 0.0000000000000000000, 1.000000000000000000, 0.0000000000000000000 ) ) ;
#301 = SURFACE_STYLE_FILL_AREA ( #302 ) ;
#302 = FILL_AREA_STYLE ('',( #282 ) ) ;
#303 = MECHANICAL_DESIGN_GEOMETRIC_PRESENTATION_REPRESENTATION (  '', ( #306 ), #295 ) ;
#304 = FACE_OUTER_BOUND ( 'NONE', #59, .T. ) ;
#305 =( NAMED_UNIT ( * ) PLANE_ANGLE_UNIT ( ) SI_UNIT ( $, .RADIAN. ) );
#306 = STYLED_ITEM ( 'NONE', ( #281 ), #102 ) ;
#307 = PRESENTATION_LAYER_ASSIGNMENT (  '', '', ( #306 ) ) ;
#308 = CARTESIAN_POINT ( 'NONE',  ( 0.0000000000000000000, 0.0000000000000000000, -248.0741366884648200 ) ) ;
#309 = CARTESIAN_POINT ( 'NONE',  ( -12.70000000000000100, 1.555250069354419300E-015, 9.330967066376240700 ) ) ;
#310 =( NAMED_UNIT ( * ) SI_UNIT ( $, .STERADIAN. ) SOLID_ANGLE_UNIT ( ) );
#311 = UNCERTAINTY_MEASURE_WITH_UNIT (LENGTH_MEASURE( 1.000000000000000100E-005 ), #278, 'distance_accuracy_value', 'NONE');
#312 = COLOUR_RGB ( '',0.9568627450980391500, 0.9490196078431372100, 0.9607843137254902200 ) ;
#313 = CARTESIAN_POINT ( 'NONE',  ( -12.70000000000000500, 1.555250069354419700E-015, -1.925863311535186400 ) ) ;
#314 =( GEOMETRIC_REPRESENTATION_CONTEXT ( 3 ) GLOBAL_UNCERTAINTY_ASSIGNED_CONTEXT ( ( #315 ) ) GLOBAL_UNIT_ASSIGNED_CONTEXT ( ( #318, #317, #316 ) ) REPRESENTATION_CONTEXT ( 'NONE', 'WORKASPACE' ) );
#315 = UNCERTAINTY_MEASURE_WITH_UNIT (LENGTH_MEASURE( 1.000000000000000100E-005 ), #318, 'distance_accuracy_value', 'NONE');
#316 =( NAMED_UNIT ( * ) SI_UNIT ( $, .STERADIAN. ) SOLID_ANGLE_UNIT ( ) );
#317 =( NAMED_UNIT ( * ) PLANE_ANGLE_UNIT ( ) SI_UNIT ( $, .RADIAN. ) );
#318 =( LENGTH_UNIT ( ) NAMED_UNIT ( * ) SI_UNIT ( .MILLI., .METRE. ) );
#319 = DIRECTION ( 'NONE',  ( 1.000000000000000000, 0.0000000000000000000, 0.0000000000000000000 ) ) ;
#320 = AXIS2_PLACEMENT_3D ( 'NONE', #321, #322, #319 ) ;
#321 = CARTESIAN_POINT ( 'NONE',  ( 0.0000000000000000000, 0.0000000000000000000, 0.0000000000000000000 ) ) ;
#322 = DIRECTION ( 'NONE',  ( 0.0000000000000000000, 0.0000000000000000000, 1.000000000000000000 ) ) ;
ENDSEC;
END-ISO-10303-21;
