ISO-10303-21;
HEADER;
FILE_DESCRIPTION (( 'STEP AP203' ),
    '1' );
FILE_NAME ('Web Model 47520.STEP',
    '2017-01-31T15:20:46',
    ( '' ),
    ( '' ),
    'SwSTEP 2.0',
    'SolidWorks 2016',
    '' );
FILE_SCHEMA (( 'CONFIG_CONTROL_DESIGN' ));
ENDSEC;

DATA;
#1 = VERTEX_POINT ( 'NONE', #49 ) ;
#2 = AXIS2_PLACEMENT_3D ( 'NONE', #47, #146, #159 ) ;
#3 = APPROVAL_ROLE ( '' ) ;
#4 = PERSON_AND_ORGANIZATION_ROLE ( 'design_owner' ) ;
#5 =( NAMED_UNIT ( * ) SI_UNIT ( $, .STERADIAN. ) SOLID_ANGLE_UNIT ( ) );
#6 = ORIENTED_EDGE ( 'NONE', *, *, #163, .T. ) ;
#7 = CC_DESIGN_PERSON_AND_ORGANIZATION_ASSIGNMENT ( #20, #42, ( #73 ) ) ;
#8 = CARTESIAN_POINT ( 'NONE',  ( -12.50000000000000000, 1.530808498934191500E-015, -4.000000000000000000 ) ) ;
#9 = CIRCLE ( 'NONE', #75, 12.50000000000000000 ) ;
#10 = PERSON ( 'UNSPECIFIED', 'UNSPECIFIED', 'UNSPECIFIED', ('UNSPECIFIED'), ('UNSPECIFIED'), ('UNSPECIFIED') ) ;
#11 = AXIS2_PLACEMENT_3D ( 'NONE', #95, #32, #65 ) ;
#12 = FACE_OUTER_BOUND ( 'NONE', #67, .T. ) ;
#13 = EDGE_CURVE ( 'NONE', #59, #1, #123, .T. ) ;
#14 = COORDINATED_UNIVERSAL_TIME_OFFSET ( 5, 0, .BEHIND. ) ;
#15 = APPLICATION_CONTEXT ( 'configuration controlled 3d designs of mechanical parts and assemblies' ) ;
#16 = DIRECTION ( 'NONE',  ( 0.0000000000000000000, 0.0000000000000000000, 1.000000000000000000 ) ) ;
#17 = MECHANICAL_CONTEXT ( 'NONE', #29, 'mechanical' ) ;
#18 = LOCAL_TIME ( 10, 20, 46.00000000000000000, #99 ) ;
#19 =( GEOMETRIC_REPRESENTATION_CONTEXT ( 3 ) GLOBAL_UNCERTAINTY_ASSIGNED_CONTEXT ( ( #71 ) ) GLOBAL_UNIT_ASSIGNED_CONTEXT ( ( #27, #153, #5 ) ) REPRESENTATION_CONTEXT ( 'NONE', 'WORKASPACE' ) );
#20 = PERSON_AND_ORGANIZATION ( #10, #48 ) ;
#21 = APPROVAL_PERSON_ORGANIZATION ( #38, #91, #168 ) ;
#22 = ORIENTED_EDGE ( 'NONE', *, *, #13, .T. ) ;
#23 = PERSON_AND_ORGANIZATION ( #10, #48 ) ;
#24 = AXIS2_PLACEMENT_3D ( 'NONE', #115, #16, #167 ) ;
#25 = ORIENTED_EDGE ( 'NONE', *, *, #69, .T. ) ;
#26 = ADVANCED_BREP_SHAPE_REPRESENTATION ( 'Web Model 47520', ( #79, #24 ), #19 ) ;
#27 =( LENGTH_UNIT ( ) NAMED_UNIT ( * ) SI_UNIT ( .MILLI., .METRE. ) );
#28 = DIRECTION ( 'NONE',  ( 0.0000000000000000000, 0.0000000000000000000, 1.000000000000000000 ) ) ;
#29 = APPLICATION_CONTEXT ( 'configuration controlled 3d designs of mechanical parts and assemblies' ) ;
#30 = COORDINATED_UNIVERSAL_TIME_OFFSET ( 5, 0, .BEHIND. ) ;
#31 = ORIENTED_EDGE ( 'NONE', *, *, #163, .F. ) ;
#32 = DIRECTION ( 'NONE',  ( 0.0000000000000000000, 0.0000000000000000000, 1.000000000000000000 ) ) ;
#33 = DIRECTION ( 'NONE',  ( 1.000000000000000000, 0.0000000000000000000, 0.0000000000000000000 ) ) ;
#34 = LINE ( 'NONE', #8, #137 ) ;
#35 = CARTESIAN_POINT ( 'NONE',  ( 0.0000000000000000000, 0.0000000000000000000, 0.0000000000000000000 ) ) ;
#36 = ORIENTED_EDGE ( 'NONE', *, *, #175, .F. ) ;
#37 = APPROVAL_PERSON_ORGANIZATION ( #114, #53, #3 ) ;
#38 = PERSON_AND_ORGANIZATION ( #10, #48 ) ;
#39 = AXIS2_PLACEMENT_3D ( 'NONE', #165, #28, #57 ) ;
#40 = CARTESIAN_POINT ( 'NONE',  ( -12.50000000000000000, 1.530808498934191500E-015, -4.000000000000000000 ) ) ;
#41 = SHAPE_DEFINITION_REPRESENTATION ( #156, #26 ) ;
#42 = PERSON_AND_ORGANIZATION_ROLE ( 'design_supplier' ) ;
#43 = VECTOR ( 'NONE', #155, 1000.000000000000000 ) ;
#44 = CALENDAR_DATE ( 2017, 31, 1 ) ;
#45 = DIRECTION ( 'NONE',  ( 1.000000000000000000, 0.0000000000000000000, -0.0000000000000000000 ) ) ;
#46 = DIRECTION ( 'NONE',  ( 0.0000000000000000000, 0.0000000000000000000, 1.000000000000000000 ) ) ;
#47 = CARTESIAN_POINT ( 'NONE',  ( 0.0000000000000000000, 0.0000000000000000000, 0.0000000000000000000 ) ) ;
#48 = ORGANIZATION ( 'UNSPECIFIED', 'UNSPECIFIED', '' ) ;
#49 = CARTESIAN_POINT ( 'NONE',  ( 12.50000000000000000, 0.0000000000000000000, 0.0000000000000000000 ) ) ;
#50 = DIRECTION ( 'NONE',  ( 0.0000000000000000000, 0.0000000000000000000, 1.000000000000000000 ) ) ;
#51 = APPROVAL_DATE_TIME ( #92, #91 ) ;
#52 = APPROVAL_DATE_TIME ( #94, #97 ) ;
#53 = APPROVAL ( #58, 'UNSPECIFIED' ) ;
#54 = LOCAL_TIME ( 10, 20, 46.00000000000000000, #101 ) ;
#55 = PRODUCT_DEFINITION ( 'UNKNOWN', '', #73, #82 ) ;
#56 = EDGE_CURVE ( 'NONE', #1, #116, #142, .T. ) ;
#57 = DIRECTION ( 'NONE',  ( 1.000000000000000000, 0.0000000000000000000, 0.0000000000000000000 ) ) ;
#58 = APPROVAL_STATUS ( 'not_yet_approved' ) ;
#59 = VERTEX_POINT ( 'NONE', #108 ) ;
#60 = CARTESIAN_POINT ( 'NONE',  ( 0.0000000000000000000, 0.0000000000000000000, -4.000000000000000000 ) ) ;
#61 = COORDINATED_UNIVERSAL_TIME_OFFSET ( 5, 0, .BEHIND. ) ;
#62 = CC_DESIGN_APPROVAL ( #53, ( #55 ) ) ;
#63 = CALENDAR_DATE ( 2017, 31, 1 ) ;
#64 = CIRCLE ( 'NONE', #11, 12.50000000000000000 ) ;
#65 = DIRECTION ( 'NONE',  ( 1.000000000000000000, 0.0000000000000000000, 0.0000000000000000000 ) ) ;
#66 = APPROVAL_PERSON_ORGANIZATION ( #132, #97, #131 ) ;
#67 = EDGE_LOOP ( 'NONE', ( #31, #36 ) ) ;
#68 = SECURITY_CLASSIFICATION ( '', '', #113 ) ;
#69 = EDGE_CURVE ( 'NONE', #116, #1, #9, .T. ) ;
#70 = ORIENTED_EDGE ( 'NONE', *, *, #139, .F. ) ;
#71 = UNCERTAINTY_MEASURE_WITH_UNIT (LENGTH_MEASURE( 1.000000000000000100E-005 ), #27, 'distance_accuracy_value', 'NONE');
#72 = CYLINDRICAL_SURFACE ( 'NONE', #110, 12.50000000000000000 ) ;
#73 = PRODUCT_DEFINITION_FORMATION_WITH_SPECIFIED_SOURCE ( 'ANY', '', #98, .NOT_KNOWN. ) ;
#74 = DATE_TIME_ROLE ( 'creation_date' ) ;
#75 = AXIS2_PLACEMENT_3D ( 'NONE', #93, #170, #143 ) ;
#76 = ORIENTED_EDGE ( 'NONE', *, *, #56, .T. ) ;
#77 = CARTESIAN_POINT ( 'NONE',  ( 0.0000000000000000000, 0.0000000000000000000, -4.000000000000000000 ) ) ;
#78 = ADVANCED_FACE ( 'NONE', ( #12 ), #145, .F. ) ;
#79 = MANIFOLD_SOLID_BREP ( 'Extrude1', #136 ) ;
#80 = ORIENTED_EDGE ( 'NONE', *, *, #139, .T. ) ;
#81 = CC_DESIGN_APPROVAL ( #91, ( #68 ) ) ;
#82 = DESIGN_CONTEXT ( 'detailed design', #15, 'design' ) ;
#83 = EDGE_LOOP ( 'NONE', ( #70, #161, #22, #169 ) ) ;
#84 = LOCAL_TIME ( 10, 20, 46.00000000000000000, #30 ) ;
#85 = CC_DESIGN_PERSON_AND_ORGANIZATION_ASSIGNMENT ( #164, #129, ( #68 ) ) ;
#86 = AXIS2_PLACEMENT_3D ( 'NONE', #35, #160, #106 ) ;
#87 = LOCAL_TIME ( 10, 20, 46.00000000000000000, #61 ) ;
#88 = APPROVAL_STATUS ( 'not_yet_approved' ) ;
#89 = APPLICATION_PROTOCOL_DEFINITION ( 'international standard', 'config_control_design', 1994, #29 ) ;
#90 = ORIENTED_EDGE ( 'NONE', *, *, #56, .F. ) ;
#91 = APPROVAL ( #117, 'UNSPECIFIED' ) ;
#92 = DATE_AND_TIME ( #128, #18 ) ;
#93 = CARTESIAN_POINT ( 'NONE',  ( 0.0000000000000000000, 0.0000000000000000000, 0.0000000000000000000 ) ) ;
#94 = DATE_AND_TIME ( #162, #87 ) ;
#95 = CARTESIAN_POINT ( 'NONE',  ( 0.0000000000000000000, 0.0000000000000000000, -4.000000000000000000 ) ) ;
#96 = DIRECTION ( 'NONE',  ( 1.000000000000000000, 0.0000000000000000000, 0.0000000000000000000 ) ) ;
#97 = APPROVAL ( #88, 'UNSPECIFIED' ) ;
#98 = PRODUCT ( 'Web Model 47520', 'Web Model 47520', '', ( #17 ) ) ;
#99 = COORDINATED_UNIVERSAL_TIME_OFFSET ( 5, 0, .BEHIND. ) ;
#100 = ORIENTED_EDGE ( 'NONE', *, *, #13, .F. ) ;
#101 = COORDINATED_UNIVERSAL_TIME_OFFSET ( 5, 0, .BEHIND. ) ;
#102 = PERSON_AND_ORGANIZATION_ROLE ( 'creator' ) ;
#103 = ADVANCED_FACE ( 'NONE', ( #150 ), #109, .T. ) ;
#104 = APPLICATION_PROTOCOL_DEFINITION ( 'international standard', 'config_control_design', 1994, #15 ) ;
#105 = EDGE_LOOP ( 'NONE', ( #76, #25 ) ) ;
#106 = DIRECTION ( 'NONE',  ( 1.000000000000000000, 0.0000000000000000000, 0.0000000000000000000 ) ) ;
#107 = CIRCLE ( 'NONE', #39, 12.50000000000000000 ) ;
#108 = CARTESIAN_POINT ( 'NONE',  ( 12.50000000000000000, 0.0000000000000000000, -4.000000000000000000 ) ) ;
#109 = CYLINDRICAL_SURFACE ( 'NONE', #134, 12.50000000000000000 ) ;
#110 = AXIS2_PLACEMENT_3D ( 'NONE', #171, #46, #96 ) ;
#111 = CC_DESIGN_PERSON_AND_ORGANIZATION_ASSIGNMENT ( #119, #154, ( #55 ) ) ;
#112 = AXIS2_PLACEMENT_3D ( 'NONE', #77, #157, #45 ) ;
#113 = SECURITY_CLASSIFICATION_LEVEL ( 'unclassified' ) ;
#114 = PERSON_AND_ORGANIZATION ( #10, #48 ) ;
#115 = CARTESIAN_POINT ( 'NONE',  ( 0.0000000000000000000, 0.0000000000000000000, 0.0000000000000000000 ) ) ;
#116 = VERTEX_POINT ( 'NONE', #122 ) ;
#117 = APPROVAL_STATUS ( 'not_yet_approved' ) ;
#118 = CC_DESIGN_SECURITY_CLASSIFICATION ( #68, ( #73 ) ) ;
#119 = PERSON_AND_ORGANIZATION ( #10, #48 ) ;
#120 = CARTESIAN_POINT ( 'NONE',  ( 12.50000000000000000, 0.0000000000000000000, -4.000000000000000000 ) ) ;
#121 = CC_DESIGN_DATE_AND_TIME_ASSIGNMENT ( #138, #141, ( #68 ) ) ;
#122 = CARTESIAN_POINT ( 'NONE',  ( -12.50000000000000000, 1.530808498934191500E-015, 0.0000000000000000000 ) ) ;
#123 = LINE ( 'NONE', #120, #43 ) ;
#124 = APPROVAL_DATE_TIME ( #152, #53 ) ;
#125 = CC_DESIGN_APPROVAL ( #97, ( #73 ) ) ;
#126 = CALENDAR_DATE ( 2017, 31, 1 ) ;
#127 = EDGE_LOOP ( 'NONE', ( #6, #80, #90, #100 ) ) ;
#128 = CALENDAR_DATE ( 2017, 31, 1 ) ;
#129 = PERSON_AND_ORGANIZATION_ROLE ( 'classification_officer' ) ;
#130 = ADVANCED_FACE ( 'NONE', ( #144 ), #72, .T. ) ;
#131 = APPROVAL_ROLE ( '' ) ;
#132 = PERSON_AND_ORGANIZATION ( #10, #48 ) ;
#133 = CC_DESIGN_DATE_AND_TIME_ASSIGNMENT ( #172, #74, ( #55 ) ) ;
#134 = AXIS2_PLACEMENT_3D ( 'NONE', #60, #147, #33 ) ;
#135 = PLANE ( 'NONE',  #2 ) ;
#136 = CLOSED_SHELL ( 'NONE', ( #103, #130, #78, #140 ) ) ;
#137 = VECTOR ( 'NONE', #50, 1000.000000000000000 ) ;
#138 = DATE_AND_TIME ( #63, #54 ) ;
#139 = EDGE_CURVE ( 'NONE', #173, #116, #34, .T. ) ;
#140 = ADVANCED_FACE ( 'NONE', ( #166 ), #135, .T. ) ;
#141 = DATE_TIME_ROLE ( 'classification_date' ) ;
#142 = CIRCLE ( 'NONE', #86, 12.50000000000000000 ) ;
#143 = DIRECTION ( 'NONE',  ( 1.000000000000000000, 0.0000000000000000000, 0.0000000000000000000 ) ) ;
#144 = FACE_OUTER_BOUND ( 'NONE', #83, .T. ) ;
#145 = PLANE ( 'NONE',  #112 ) ;
#146 = DIRECTION ( 'NONE',  ( 0.0000000000000000000, 0.0000000000000000000, 1.000000000000000000 ) ) ;
#147 = DIRECTION ( 'NONE',  ( 0.0000000000000000000, 0.0000000000000000000, 1.000000000000000000 ) ) ;
#148 = CC_DESIGN_PERSON_AND_ORGANIZATION_ASSIGNMENT ( #23, #102, ( #73 ) ) ;
#149 = PERSON_AND_ORGANIZATION ( #10, #48 ) ;
#150 = FACE_OUTER_BOUND ( 'NONE', #127, .T. ) ;
#151 = PRODUCT_RELATED_PRODUCT_CATEGORY ( 'detail', '', ( #98 ) ) ;
#152 = DATE_AND_TIME ( #126, #158 ) ;
#153 =( NAMED_UNIT ( * ) PLANE_ANGLE_UNIT ( ) SI_UNIT ( $, .RADIAN. ) );
#154 = PERSON_AND_ORGANIZATION_ROLE ( 'creator' ) ;
#155 = DIRECTION ( 'NONE',  ( 0.0000000000000000000, 0.0000000000000000000, 1.000000000000000000 ) ) ;
#156 = PRODUCT_DEFINITION_SHAPE ( 'NONE', 'NONE',  #55 ) ;
#157 = DIRECTION ( 'NONE',  ( 0.0000000000000000000, 0.0000000000000000000, 1.000000000000000000 ) ) ;
#158 = LOCAL_TIME ( 10, 20, 46.00000000000000000, #14 ) ;
#159 = DIRECTION ( 'NONE',  ( 1.000000000000000000, 0.0000000000000000000, -0.0000000000000000000 ) ) ;
#160 = DIRECTION ( 'NONE',  ( 0.0000000000000000000, 0.0000000000000000000, 1.000000000000000000 ) ) ;
#161 = ORIENTED_EDGE ( 'NONE', *, *, #175, .T. ) ;
#162 = CALENDAR_DATE ( 2017, 31, 1 ) ;
#163 = EDGE_CURVE ( 'NONE', #59, #173, #64, .T. ) ;
#164 = PERSON_AND_ORGANIZATION ( #10, #48 ) ;
#165 = CARTESIAN_POINT ( 'NONE',  ( 0.0000000000000000000, 0.0000000000000000000, -4.000000000000000000 ) ) ;
#166 = FACE_OUTER_BOUND ( 'NONE', #105, .T. ) ;
#167 = DIRECTION ( 'NONE',  ( 1.000000000000000000, 0.0000000000000000000, 0.0000000000000000000 ) ) ;
#168 = APPROVAL_ROLE ( '' ) ;
#169 = ORIENTED_EDGE ( 'NONE', *, *, #69, .F. ) ;
#170 = DIRECTION ( 'NONE',  ( 0.0000000000000000000, 0.0000000000000000000, 1.000000000000000000 ) ) ;
#171 = CARTESIAN_POINT ( 'NONE',  ( 0.0000000000000000000, 0.0000000000000000000, -4.000000000000000000 ) ) ;
#172 = DATE_AND_TIME ( #44, #84 ) ;
#173 = VERTEX_POINT ( 'NONE', #40 ) ;
#174 = CC_DESIGN_PERSON_AND_ORGANIZATION_ASSIGNMENT ( #149, #4, ( #98 ) ) ;
#175 = EDGE_CURVE ( 'NONE', #173, #59, #107, .T. ) ;
ENDSEC;
END-ISO-10303-21;
