ISO-10303-21;
HEADER;
FILE_DESCRIPTION (( 'STEP AP203' ),
    '1' );
FILE_NAME ('Web Model 43369_20810.step',
    '2022-03-16T14:54:29',
    ( '' ),
    ( '' ),
    'SwSTEP 2.0',
    'SolidWorks 2021',
    '' );
FILE_SCHEMA (( 'CONFIG_CONTROL_DESIGN' ));
ENDSEC;

DATA;
#1 = FACE_OUTER_BOUND ( 'NONE', #92, .T. ) ;
#2 = CIRCLE ( 'NONE', #101, 12.50000000000000000 ) ;
#3 = DIRECTION ( 'NONE',  ( 1.000000000000000000, 0.000000000000000000, -0.000000000000000000 ) ) ;
#4 = DIRECTION ( 'NONE',  ( -1.000000000000000000, 0.000000000000000000, 0.000000000000000000 ) ) ;
#5 = CARTESIAN_POINT ( 'NONE',  ( 0.000000000000000000, 0.000000000000000000, 0.000000000000000000 ) ) ;
#6 = DATE_AND_TIME ( #168, #135 ) ;
#7 = APPROVAL_PERSON_ORGANIZATION ( #8, #67, #90 ) ;
#8 = PERSON_AND_ORGANIZATION ( #57, #75 ) ;
#9 = ORIENTED_EDGE ( 'NONE', *, *, #89, .F. ) ;
#10 = PRODUCT_DEFINITION_SHAPE ( 'NONE', 'NONE',  #77 ) ;
#11 = CARTESIAN_POINT ( 'NONE',  ( 12.50000000000000000, 1.530808498934191521E-15, 0.000000000000000000 ) ) ;
#12 = FACE_OUTER_BOUND ( 'NONE', #174, .T. ) ;
#13 = CARTESIAN_POINT ( 'NONE',  ( -12.50000000000000000, 0.000000000000000000, 0.5000000000000000000 ) ) ;
#14 = DIRECTION ( 'NONE',  ( 0.000000000000000000, 0.000000000000000000, 1.000000000000000000 ) ) ;
#15 = APPROVAL_ROLE ( '' ) ;
#16 = SHAPE_DEFINITION_REPRESENTATION ( #10, #98 ) ;
#17 = CALENDAR_DATE ( 2022, 16, 3 ) ;
#18 = LOCAL_TIME ( 10, 54, 29.00000000000000000, #166 ) ;
#19 = ORIENTED_EDGE ( 'NONE', *, *, #65, .T. ) ;
#20 = VECTOR ( 'NONE', #83, 1000.000000000000000 ) ;
#21 = DIRECTION ( 'NONE',  ( 0.000000000000000000, 0.000000000000000000, 1.000000000000000000 ) ) ;
#22 = VERTEX_POINT ( 'NONE', #107 ) ;
#23 = CYLINDRICAL_SURFACE ( 'NONE', #141, 12.50000000000000000 ) ;
#24 = MANIFOLD_SOLID_BREP ( 'Boss-Extrude1', #28 ) ;
#25 = CC_DESIGN_PERSON_AND_ORGANIZATION_ASSIGNMENT ( #74, #118, ( #71 ) ) ;
#26 = PERSON_AND_ORGANIZATION ( #57, #75 ) ;
#27 = CARTESIAN_POINT ( 'NONE',  ( 0.000000000000000000, 0.000000000000000000, 0.5000000000000000000 ) ) ;
#28 = CLOSED_SHELL ( 'NONE', ( #127, #102, #128, #48 ) ) ;
#29 = DIRECTION ( 'NONE',  ( 1.000000000000000000, 0.000000000000000000, 0.000000000000000000 ) ) ;
#30 = DATE_TIME_ROLE ( 'classification_date' ) ;
#31 = AXIS2_PLACEMENT_3D ( 'NONE', #147, #21, #72 ) ;
#32 = EDGE_CURVE ( 'NONE', #121, #66, #148, .T. ) ;
#33 = PERSON_AND_ORGANIZATION ( #57, #75 ) ;
#34 = PERSON_AND_ORGANIZATION ( #57, #75 ) ;
#35 = APPROVAL ( #140, 'UNSPECIFIED' ) ;
#36 = CC_DESIGN_SECURITY_CLASSIFICATION ( #71, ( #53 ) ) ;
#37 = ORIENTED_EDGE ( 'NONE', *, *, #65, .F. ) ;
#38 = PLANE ( 'NONE',  #31 ) ;
#39 = ORIENTED_EDGE ( 'NONE', *, *, #156, .F. ) ;
#40 = PRODUCT ( 'Web Model 43369_20810', 'Web Model 43369_20810', '', ( #162 ) ) ;
#41 = DIRECTION ( 'NONE',  ( -0.000000000000000000, -0.000000000000000000, -1.000000000000000000 ) ) ;
#42 = CC_DESIGN_APPROVAL ( #67, ( #53 ) ) ;
#43 = CYLINDRICAL_SURFACE ( 'NONE', #64, 12.50000000000000000 ) ;
#44 = APPROVAL_PERSON_ORGANIZATION ( #115, #116, #15 ) ;
#45 = DIRECTION ( 'NONE',  ( -0.000000000000000000, -0.000000000000000000, -1.000000000000000000 ) ) ;
#46 = DIRECTION ( 'NONE',  ( -1.000000000000000000, 0.000000000000000000, 0.000000000000000000 ) ) ;
#47 = COORDINATED_UNIVERSAL_TIME_OFFSET ( 5, 0, .BEHIND. ) ;
#48 = ADVANCED_FACE ( 'NONE', ( #157 ), #38, .F. ) ;
#49 = APPROVAL_DATE_TIME ( #6, #35 ) ;
#50 = PERSON_AND_ORGANIZATION ( #57, #75 ) ;
#51 = APPROVAL_STATUS ( 'not_yet_approved' ) ;
#52 = ORIENTED_EDGE ( 'NONE', *, *, #156, .T. ) ;
#53 = PRODUCT_DEFINITION_FORMATION_WITH_SPECIFIED_SOURCE ( 'ANY', '', #40, .NOT_KNOWN. ) ;
#54 = EDGE_LOOP ( 'NONE', ( #37, #39 ) ) ;
#55 =( NAMED_UNIT ( * ) SI_UNIT ( $, .STERADIAN. ) SOLID_ANGLE_UNIT ( ) );
#56 = CARTESIAN_POINT ( 'NONE',  ( 0.000000000000000000, 0.000000000000000000, 0.5000000000000000000 ) ) ;
#57 = PERSON ( 'UNSPECIFIED', 'UNSPECIFIED', 'UNSPECIFIED', ('UNSPECIFIED'), ('UNSPECIFIED'), ('UNSPECIFIED') ) ;
#58 = DIRECTION ( 'NONE',  ( 1.000000000000000000, 0.000000000000000000, 0.000000000000000000 ) ) ;
#59 = APPROVAL_PERSON_ORGANIZATION ( #63, #35, #126 ) ;
#60 = DATE_AND_TIME ( #86, #112 ) ;
#61 = APPROVAL_DATE_TIME ( #170, #116 ) ;
#62 = CC_DESIGN_PERSON_AND_ORGANIZATION_ASSIGNMENT ( #50, #153, ( #53 ) ) ;
#63 = PERSON_AND_ORGANIZATION ( #57, #75 ) ;
#64 = AXIS2_PLACEMENT_3D ( 'NONE', #56, #41, #4 ) ;
#65 = EDGE_CURVE ( 'NONE', #22, #172, #154, .T. ) ;
#66 = VERTEX_POINT ( 'NONE', #13 ) ;
#67 = APPROVAL ( #51, 'UNSPECIFIED' ) ;
#68 = ORIENTED_EDGE ( 'NONE', *, *, #91, .F. ) ;
#69 =( GEOMETRIC_REPRESENTATION_CONTEXT ( 3 ) GLOBAL_UNCERTAINTY_ASSIGNED_CONTEXT ( ( #145 ) ) GLOBAL_UNIT_ASSIGNED_CONTEXT ( ( #137, #113, #55 ) ) REPRESENTATION_CONTEXT ( 'NONE', 'WORKASPACE' ) );
#70 = CARTESIAN_POINT ( 'NONE',  ( 0.000000000000000000, 0.000000000000000000, 0.000000000000000000 ) ) ;
#71 = SECURITY_CLASSIFICATION ( '', '', #88 ) ;
#72 = DIRECTION ( 'NONE',  ( 1.000000000000000000, 0.000000000000000000, -0.000000000000000000 ) ) ;
#73 = CALENDAR_DATE ( 2022, 16, 3 ) ;
#74 = PERSON_AND_ORGANIZATION ( #57, #75 ) ;
#75 = ORGANIZATION ( 'UNSPECIFIED', 'UNSPECIFIED', '' ) ;
#76 = APPROVAL_STATUS ( 'not_yet_approved' ) ;
#77 = PRODUCT_DEFINITION ( 'UNKNOWN', '', #53, #105 ) ;
#78 = AXIS2_PLACEMENT_3D ( 'NONE', #5, #14, #58 ) ;
#79 = AXIS2_PLACEMENT_3D ( 'NONE', #123, #150, #97 ) ;
#80 = CC_DESIGN_DATE_AND_TIME_ASSIGNMENT ( #60, #87, ( #77 ) ) ;
#81 = CC_DESIGN_APPROVAL ( #116, ( #77 ) ) ;
#82 = ORIENTED_EDGE ( 'NONE', *, *, #89, .T. ) ;
#83 = DIRECTION ( 'NONE',  ( -0.000000000000000000, -0.000000000000000000, -1.000000000000000000 ) ) ;
#84 = CARTESIAN_POINT ( 'NONE',  ( 0.000000000000000000, 0.000000000000000000, 0.5000000000000000000 ) ) ;
#85 = COORDINATED_UNIVERSAL_TIME_OFFSET ( 5, 0, .BEHIND. ) ;
#86 = CALENDAR_DATE ( 2022, 16, 3 ) ;
#87 = DATE_TIME_ROLE ( 'creation_date' ) ;
#88 = SECURITY_CLASSIFICATION_LEVEL ( 'unclassified' ) ;
#89 = EDGE_CURVE ( 'NONE', #66, #121, #2, .T. ) ;
#90 = APPROVAL_ROLE ( '' ) ;
#91 = EDGE_CURVE ( 'NONE', #66, #22, #164, .T. ) ;
#92 = EDGE_LOOP ( 'NONE', ( #161, #9, #122, #19 ) ) ;
#93 = EDGE_LOOP ( 'NONE', ( #119, #158, #52, #68 ) ) ;
#94 = CARTESIAN_POINT ( 'NONE',  ( 12.50000000000000000, 1.530808498934191521E-15, 0.5000000000000000000 ) ) ;
#95 = DIRECTION ( 'NONE',  ( 0.000000000000000000, 0.000000000000000000, 1.000000000000000000 ) ) ;
#96 = CC_DESIGN_PERSON_AND_ORGANIZATION_ASSIGNMENT ( #34, #144, ( #77 ) ) ;
#97 = DIRECTION ( 'NONE',  ( 1.000000000000000000, 0.000000000000000000, 0.000000000000000000 ) ) ;
#98 = ADVANCED_BREP_SHAPE_REPRESENTATION ( 'Web Model 43369_20810', ( #24, #78 ), #69 ) ;
#99 = DIRECTION ( 'NONE',  ( 1.000000000000000000, 0.000000000000000000, 0.000000000000000000 ) ) ;
#100 = AXIS2_PLACEMENT_3D ( 'NONE', #132, #120, #108 ) ;
#101 = AXIS2_PLACEMENT_3D ( 'NONE', #27, #95, #99 ) ;
#102 = ADVANCED_FACE ( 'NONE', ( #1 ), #43, .T. ) ;
#103 = DATE_AND_TIME ( #171, #109 ) ;
#104 = COORDINATED_UNIVERSAL_TIME_OFFSET ( 5, 0, .BEHIND. ) ;
#105 = DESIGN_CONTEXT ( 'detailed design', #143, 'design' ) ;
#106 = AXIS2_PLACEMENT_3D ( 'NONE', #70, #124, #29 ) ;
#107 = CARTESIAN_POINT ( 'NONE',  ( -12.50000000000000000, 0.000000000000000000, 0.000000000000000000 ) ) ;
#108 = DIRECTION ( 'NONE',  ( 1.000000000000000000, 0.000000000000000000, 0.000000000000000000 ) ) ;
#109 = LOCAL_TIME ( 10, 54, 29.00000000000000000, #104 ) ;
#110 = EDGE_CURVE ( 'NONE', #121, #172, #111, .T. ) ;
#111 = LINE ( 'NONE', #94, #139 ) ;
#112 = LOCAL_TIME ( 10, 54, 29.00000000000000000, #85 ) ;
#113 =( NAMED_UNIT ( * ) PLANE_ANGLE_UNIT ( ) SI_UNIT ( $, .RADIAN. ) );
#114 = APPLICATION_PROTOCOL_DEFINITION ( 'international standard', 'config_control_design', 1994, #143 ) ;
#115 = PERSON_AND_ORGANIZATION ( #57, #75 ) ;
#116 = APPROVAL ( #76, 'UNSPECIFIED' ) ;
#117 = APPLICATION_CONTEXT ( 'configuration controlled 3d designs of mechanical parts and assemblies' ) ;
#118 = PERSON_AND_ORGANIZATION_ROLE ( 'classification_officer' ) ;
#119 = ORIENTED_EDGE ( 'NONE', *, *, #32, .F. ) ;
#120 = DIRECTION ( 'NONE',  ( 0.000000000000000000, 0.000000000000000000, 1.000000000000000000 ) ) ;
#121 = VERTEX_POINT ( 'NONE', #138 ) ;
#122 = ORIENTED_EDGE ( 'NONE', *, *, #91, .T. ) ;
#123 = CARTESIAN_POINT ( 'NONE',  ( 0.000000000000000000, 0.000000000000000000, 0.000000000000000000 ) ) ;
#124 = DIRECTION ( 'NONE',  ( 0.000000000000000000, 0.000000000000000000, 1.000000000000000000 ) ) ;
#125 = PERSON_AND_ORGANIZATION_ROLE ( 'design_owner' ) ;
#126 = APPROVAL_ROLE ( '' ) ;
#127 = ADVANCED_FACE ( 'NONE', ( #163 ), #23, .T. ) ;
#128 = ADVANCED_FACE ( 'NONE', ( #12 ), #134, .T. ) ;
#129 = PERSON_AND_ORGANIZATION_ROLE ( 'design_supplier' ) ;
#130 = CIRCLE ( 'NONE', #106, 12.50000000000000000 ) ;
#131 = PRODUCT_RELATED_PRODUCT_CATEGORY ( 'detail', '', ( #40 ) ) ;
#132 = CARTESIAN_POINT ( 'NONE',  ( 0.000000000000000000, 0.000000000000000000, 0.5000000000000000000 ) ) ;
#133 = CC_DESIGN_APPROVAL ( #35, ( #71 ) ) ;
#134 = PLANE ( 'NONE',  #146 ) ;
#135 = LOCAL_TIME ( 10, 54, 29.00000000000000000, #47 ) ;
#136 = DIRECTION ( 'NONE',  ( 0.000000000000000000, 0.000000000000000000, 1.000000000000000000 ) ) ;
#137 =( LENGTH_UNIT ( ) NAMED_UNIT ( * ) SI_UNIT ( .MILLI., .METRE. ) );
#138 = CARTESIAN_POINT ( 'NONE',  ( 12.50000000000000000, 1.530808498934191521E-15, 0.5000000000000000000 ) ) ;
#139 = VECTOR ( 'NONE', #45, 1000.000000000000000 ) ;
#140 = APPROVAL_STATUS ( 'not_yet_approved' ) ;
#141 = AXIS2_PLACEMENT_3D ( 'NONE', #84, #152, #46 ) ;
#142 = APPROVAL_DATE_TIME ( #167, #67 ) ;
#143 = APPLICATION_CONTEXT ( 'configuration controlled 3d designs of mechanical parts and assemblies' ) ;
#144 = PERSON_AND_ORGANIZATION_ROLE ( 'creator' ) ;
#145 = UNCERTAINTY_MEASURE_WITH_UNIT (LENGTH_MEASURE( 1.000000000000000082E-05 ), #137, 'distance_accuracy_value', 'NONE');
#146 = AXIS2_PLACEMENT_3D ( 'NONE', #151, #136, #3 ) ;
#147 = CARTESIAN_POINT ( 'NONE',  ( 0.000000000000000000, 0.000000000000000000, 0.000000000000000000 ) ) ;
#148 = CIRCLE ( 'NONE', #100, 12.50000000000000000 ) ;
#149 = ORIENTED_EDGE ( 'NONE', *, *, #32, .T. ) ;
#150 = DIRECTION ( 'NONE',  ( 0.000000000000000000, 0.000000000000000000, 1.000000000000000000 ) ) ;
#151 = CARTESIAN_POINT ( 'NONE',  ( 0.000000000000000000, 0.000000000000000000, 0.5000000000000000000 ) ) ;
#152 = DIRECTION ( 'NONE',  ( -0.000000000000000000, -0.000000000000000000, -1.000000000000000000 ) ) ;
#153 = PERSON_AND_ORGANIZATION_ROLE ( 'creator' ) ;
#154 = CIRCLE ( 'NONE', #79, 12.50000000000000000 ) ;
#155 = COORDINATED_UNIVERSAL_TIME_OFFSET ( 5, 0, .BEHIND. ) ;
#156 = EDGE_CURVE ( 'NONE', #172, #22, #130, .T. ) ;
#157 = FACE_OUTER_BOUND ( 'NONE', #54, .T. ) ;
#158 = ORIENTED_EDGE ( 'NONE', *, *, #110, .T. ) ;
#159 = CC_DESIGN_PERSON_AND_ORGANIZATION_ASSIGNMENT ( #33, #129, ( #53 ) ) ;
#160 = LOCAL_TIME ( 10, 54, 29.00000000000000000, #155 ) ;
#161 = ORIENTED_EDGE ( 'NONE', *, *, #110, .F. ) ;
#162 = MECHANICAL_CONTEXT ( 'NONE', #117, 'mechanical' ) ;
#163 = FACE_OUTER_BOUND ( 'NONE', #93, .T. ) ;
#164 = LINE ( 'NONE', #165, #20 ) ;
#165 = CARTESIAN_POINT ( 'NONE',  ( -12.50000000000000000, 0.000000000000000000, 0.5000000000000000000 ) ) ;
#166 = COORDINATED_UNIVERSAL_TIME_OFFSET ( 5, 0, .BEHIND. ) ;
#167 = DATE_AND_TIME ( #17, #160 ) ;
#168 = CALENDAR_DATE ( 2022, 16, 3 ) ;
#169 = CC_DESIGN_PERSON_AND_ORGANIZATION_ASSIGNMENT ( #26, #125, ( #40 ) ) ;
#170 = DATE_AND_TIME ( #73, #18 ) ;
#171 = CALENDAR_DATE ( 2022, 16, 3 ) ;
#172 = VERTEX_POINT ( 'NONE', #11 ) ;
#173 = CC_DESIGN_DATE_AND_TIME_ASSIGNMENT ( #103, #30, ( #71 ) ) ;
#174 = EDGE_LOOP ( 'NONE', ( #82, #149 ) ) ;
#175 = APPLICATION_PROTOCOL_DEFINITION ( 'international standard', 'config_control_design', 1994, #117 ) ;
ENDSEC;
END-ISO-10303-21;
