ISO-10303-21;
HEADER;
FILE_DESCRIPTION (( 'STEP AP203' ),
    '1' );
FILE_NAME ('Web Model 15404_15783.step',
    '2020-11-04T13:40:40',
    ( '' ),
    ( '' ),
    'SwSTEP 2.0',
    'SolidWorks 2018',
    '' );
FILE_SCHEMA (( 'CONFIG_CONTROL_DESIGN' ));
ENDSEC;

DATA;
#1 = MECHANICAL_CONTEXT ( 'NONE', #59, 'mechanical' ) ;
#2 = CC_DESIGN_PERSON_AND_ORGANIZATION_ASSIGNMENT ( #101, #144, ( #123 ) ) ;
#3 = CARTESIAN_POINT ( 'NONE',  ( 0.0000000000000000000, 0.0000000000000000000, 0.0000000000000000000 ) ) ;
#4 = DIRECTION ( 'NONE',  ( 0.0000000000000000000, 0.0000000000000000000, -1.000000000000000000 ) ) ;
#5 = CARTESIAN_POINT ( 'NONE',  ( 2.500000000000000000, 0.0000000000000000000, 0.0000000000000000000 ) ) ;
#6 = APPROVAL ( #84, 'UNSPECIFIED' ) ;
#7 = ORIENTED_EDGE ( 'NONE', *, *, #51, .T. ) ;
#8 = COORDINATED_UNIVERSAL_TIME_OFFSET ( 5, 0, .BEHIND. ) ;
#9 = APPROVAL ( #169, 'UNSPECIFIED' ) ;
#10 = CALENDAR_DATE ( 2020, 4, 11 ) ;
#11 = VECTOR ( 'NONE', #35, 1000.000000000000000 ) ;
#12 = AXIS2_PLACEMENT_3D ( 'NONE', #33, #96, #4 ) ;
#13 = CC_DESIGN_SECURITY_CLASSIFICATION ( #138, ( #121 ) ) ;
#14 = PRODUCT_RELATED_PRODUCT_CATEGORY ( 'detail', '', ( #123 ) ) ;
#15 = DIRECTION ( 'NONE',  ( 0.0000000000000000000, 0.0000000000000000000, 1.000000000000000000 ) ) ;
#16 =( LENGTH_UNIT ( ) NAMED_UNIT ( * ) SI_UNIT ( .MILLI., .METRE. ) );
#17 = APPROVAL_ROLE ( '' ) ;
#18 = CC_DESIGN_APPROVAL ( #9, ( #138 ) ) ;
#19 = FACE_OUTER_BOUND ( 'NONE', #56, .T. ) ;
#20 = DIRECTION ( 'NONE',  ( -1.000000000000000000, -0.0000000000000000000, -0.0000000000000000000 ) ) ;
#21 = DATE_TIME_ROLE ( 'classification_date' ) ;
#22 = EDGE_LOOP ( 'NONE', ( #82, #7 ) ) ;
#23 = APPROVAL_PERSON_ORGANIZATION ( #37, #111, #31 ) ;
#24 = ORIENTED_EDGE ( 'NONE', *, *, #116, .T. ) ;
#25 = AXIS2_PLACEMENT_3D ( 'NONE', #3, #15, #141 ) ;
#26 = PERSON ( 'UNSPECIFIED', 'UNSPECIFIED', 'UNSPECIFIED', ('UNSPECIFIED'), ('UNSPECIFIED'), ('UNSPECIFIED') ) ;
#27 = DATE_AND_TIME ( #78, #125 ) ;
#28 = AXIS2_PLACEMENT_3D ( 'NONE', #146, #48, #74 ) ;
#29 = PERSON_AND_ORGANIZATION ( #26, #67 ) ;
#30 = LINE ( 'NONE', #134, #112 ) ;
#31 = APPROVAL_ROLE ( '' ) ;
#32 = AXIS2_PLACEMENT_3D ( 'NONE', #5, #73, #70 ) ;
#33 = CARTESIAN_POINT ( 'NONE',  ( -2.500000000000000000, 0.0000000000000000000, 0.0000000000000000000 ) ) ;
#34 = PERSON_AND_ORGANIZATION_ROLE ( 'design_supplier' ) ;
#35 = DIRECTION ( 'NONE',  ( -1.000000000000000000, -0.0000000000000000000, -0.0000000000000000000 ) ) ;
#36 =( NAMED_UNIT ( * ) SI_UNIT ( $, .STERADIAN. ) SOLID_ANGLE_UNIT ( ) );
#37 = PERSON_AND_ORGANIZATION ( #26, #67 ) ;
#38 = LINE ( 'NONE', #64, #11 ) ;
#39 = PERSON_AND_ORGANIZATION_ROLE ( 'classification_officer' ) ;
#40 = ORIENTED_EDGE ( 'NONE', *, *, #154, .T. ) ;
#41 = APPROVAL_PERSON_ORGANIZATION ( #122, #6, #17 ) ;
#42 = PRODUCT_DEFINITION ( 'UNKNOWN', '', #121, #49 ) ;
#43 = APPROVAL_DATE_TIME ( #93, #111 ) ;
#44 = DATE_TIME_ROLE ( 'creation_date' ) ;
#45 = PERSON_AND_ORGANIZATION ( #26, #67 ) ;
#46 = DIRECTION ( 'NONE',  ( 1.000000000000000000, 0.0000000000000000000, 0.0000000000000000000 ) ) ;
#47 =( GEOMETRIC_REPRESENTATION_CONTEXT ( 3 ) GLOBAL_UNCERTAINTY_ASSIGNED_CONTEXT ( ( #54 ) ) GLOBAL_UNIT_ASSIGNED_CONTEXT ( ( #16, #162, #36 ) ) REPRESENTATION_CONTEXT ( 'NONE', 'WORKASPACE' ) );
#48 = DIRECTION ( 'NONE',  ( 1.000000000000000000, 0.0000000000000000000, 0.0000000000000000000 ) ) ;
#49 = DESIGN_CONTEXT ( 'detailed design', #104, 'design' ) ;
#50 = PLANE ( 'NONE',  #157 ) ;
#51 = EDGE_CURVE ( 'NONE', #76, #150, #86, .T. ) ;
#52 = CIRCLE ( 'NONE', #68, 25.39999999999999858 ) ;
#53 = APPROVAL_PERSON_ORGANIZATION ( #159, #9, #81 ) ;
#54 = UNCERTAINTY_MEASURE_WITH_UNIT (LENGTH_MEASURE( 1.000000000000000082E-05 ), #16, 'distance_accuracy_value', 'NONE');
#55 = CC_DESIGN_PERSON_AND_ORGANIZATION_ASSIGNMENT ( #128, #99, ( #42 ) ) ;
#56 = EDGE_LOOP ( 'NONE', ( #57, #161, #66, #40 ) ) ;
#57 = ORIENTED_EDGE ( 'NONE', *, *, #109, .F. ) ;
#58 = PERSON_AND_ORGANIZATION_ROLE ( 'creator' ) ;
#59 = APPLICATION_CONTEXT ( 'configuration controlled 3d designs of mechanical parts and assemblies' ) ;
#60 = CIRCLE ( 'NONE', #32, 25.39999999999999858 ) ;
#61 = COORDINATED_UNIVERSAL_TIME_OFFSET ( 5, 0, .BEHIND. ) ;
#62 = CC_DESIGN_PERSON_AND_ORGANIZATION_ASSIGNMENT ( #85, #34, ( #121 ) ) ;
#63 = CARTESIAN_POINT ( 'NONE',  ( 2.500000000000000000, 0.0000000000000000000, 0.0000000000000000000 ) ) ;
#64 = CARTESIAN_POINT ( 'NONE',  ( 2.500000000000000000, 0.0000000000000000000, 25.39999999999999858 ) ) ;
#65 = DATE_AND_TIME ( #117, #152 ) ;
#66 = ORIENTED_EDGE ( 'NONE', *, *, #127, .T. ) ;
#67 = ORGANIZATION ( 'UNSPECIFIED', 'UNSPECIFIED', '' ) ;
#68 = AXIS2_PLACEMENT_3D ( 'NONE', #97, #46, #105 ) ;
#69 = CYLINDRICAL_SURFACE ( 'NONE', #155, 25.39999999999999858 ) ;
#70 = DIRECTION ( 'NONE',  ( 0.0000000000000000000, 0.0000000000000000000, -1.000000000000000000 ) ) ;
#71 = APPLICATION_PROTOCOL_DEFINITION ( 'international standard', 'config_control_design', 1994, #104 ) ;
#72 = VERTEX_POINT ( 'NONE', #168 ) ;
#73 = DIRECTION ( 'NONE',  ( 1.000000000000000000, 0.0000000000000000000, 0.0000000000000000000 ) ) ;
#74 = DIRECTION ( 'NONE',  ( 0.0000000000000000000, 0.0000000000000000000, -1.000000000000000000 ) ) ;
#75 = ADVANCED_FACE ( 'NONE', ( #171 ), #50, .T. ) ;
#76 = VERTEX_POINT ( 'NONE', #137 ) ;
#77 = DIRECTION ( 'NONE',  ( 1.000000000000000000, 0.0000000000000000000, 0.0000000000000000000 ) ) ;
#78 = CALENDAR_DATE ( 2020, 4, 11 ) ;
#79 = CC_DESIGN_PERSON_AND_ORGANIZATION_ASSIGNMENT ( #45, #58, ( #121 ) ) ;
#80 = DATE_AND_TIME ( #175, #110 ) ;
#81 = APPROVAL_ROLE ( '' ) ;
#82 = ORIENTED_EDGE ( 'NONE', *, *, #136, .T. ) ;
#83 = CARTESIAN_POINT ( 'NONE',  ( 2.500000000000000000, 0.0000000000000000000, 0.0000000000000000000 ) ) ;
#84 = APPROVAL_STATUS ( 'not_yet_approved' ) ;
#85 = PERSON_AND_ORGANIZATION ( #26, #67 ) ;
#86 = CIRCLE ( 'NONE', #87, 25.39999999999999858 ) ;
#87 = AXIS2_PLACEMENT_3D ( 'NONE', #167, #77, #89 ) ;
#88 = CLOSED_SHELL ( 'NONE', ( #98, #142, #75, #119 ) ) ;
#89 = DIRECTION ( 'NONE',  ( 0.0000000000000000000, 0.0000000000000000000, -1.000000000000000000 ) ) ;
#90 = AXIS2_PLACEMENT_3D ( 'NONE', #63, #100, #107 ) ;
#91 = CALENDAR_DATE ( 2020, 4, 11 ) ;
#92 = EDGE_LOOP ( 'NONE', ( #126, #148, #24, #173 ) ) ;
#93 = DATE_AND_TIME ( #10, #156 ) ;
#94 = MANIFOLD_SOLID_BREP ( 'Boss-Extrude1', #88 ) ;
#95 = ORIENTED_EDGE ( 'NONE', *, *, #154, .F. ) ;
#96 = DIRECTION ( 'NONE',  ( 1.000000000000000000, 0.0000000000000000000, 0.0000000000000000000 ) ) ;
#97 = CARTESIAN_POINT ( 'NONE',  ( -2.500000000000000000, 0.0000000000000000000, 0.0000000000000000000 ) ) ;
#98 = ADVANCED_FACE ( 'NONE', ( #135 ), #114, .T. ) ;
#99 = PERSON_AND_ORGANIZATION_ROLE ( 'creator' ) ;
#100 = DIRECTION ( 'NONE',  ( -1.000000000000000000, -0.0000000000000000000, -0.0000000000000000000 ) ) ;
#101 = PERSON_AND_ORGANIZATION ( #26, #67 ) ;
#102 = VERTEX_POINT ( 'NONE', #106 ) ;
#103 = DATE_AND_TIME ( #91, #165 ) ;
#104 = APPLICATION_CONTEXT ( 'configuration controlled 3d designs of mechanical parts and assemblies' ) ;
#105 = DIRECTION ( 'NONE',  ( 0.0000000000000000000, 0.0000000000000000000, -1.000000000000000000 ) ) ;
#106 = CARTESIAN_POINT ( 'NONE',  ( -2.500000000000000000, 3.110602869834276865E-15, -25.39999999999999858 ) ) ;
#107 = DIRECTION ( 'NONE',  ( 0.0000000000000000000, 0.0000000000000000000, 1.000000000000000000 ) ) ;
#108 = DIRECTION ( 'NONE',  ( -1.000000000000000000, -0.0000000000000000000, -0.0000000000000000000 ) ) ;
#109 = EDGE_CURVE ( 'NONE', #76, #102, #30, .T. ) ;
#110 = LOCAL_TIME ( 8, 40, 40.00000000000000000, #145 ) ;
#111 = APPROVAL ( #132, 'UNSPECIFIED' ) ;
#112 = VECTOR ( 'NONE', #20, 1000.000000000000000 ) ;
#113 = APPROVAL_DATE_TIME ( #103, #6 ) ;
#114 = CYLINDRICAL_SURFACE ( 'NONE', #90, 25.39999999999999858 ) ;
#115 = COORDINATED_UNIVERSAL_TIME_OFFSET ( 5, 0, .BEHIND. ) ;
#116 = EDGE_CURVE ( 'NONE', #102, #72, #52, .T. ) ;
#117 = CALENDAR_DATE ( 2020, 4, 11 ) ;
#118 = SECURITY_CLASSIFICATION_LEVEL ( 'unclassified' ) ;
#119 = ADVANCED_FACE ( 'NONE', ( #129 ), #133, .F. ) ;
#120 = DIRECTION ( 'NONE',  ( 0.0000000000000000000, 0.0000000000000000000, -1.000000000000000000 ) ) ;
#121 = PRODUCT_DEFINITION_FORMATION_WITH_SPECIFIED_SOURCE ( 'ANY', '', #123, .NOT_KNOWN. ) ;
#122 = PERSON_AND_ORGANIZATION ( #26, #67 ) ;
#123 = PRODUCT ( 'Web Model 15404_15783', 'Web Model 15404_15783', '', ( #1 ) ) ;
#124 = CARTESIAN_POINT ( 'NONE',  ( 2.500000000000000000, 0.0000000000000000000, 0.0000000000000000000 ) ) ;
#125 = LOCAL_TIME ( 8, 40, 40.00000000000000000, #115 ) ;
#126 = ORIENTED_EDGE ( 'NONE', *, *, #51, .F. ) ;
#127 = EDGE_CURVE ( 'NONE', #150, #72, #38, .T. ) ;
#128 = PERSON_AND_ORGANIZATION ( #26, #67 ) ;
#129 = FACE_OUTER_BOUND ( 'NONE', #166, .T. ) ;
#130 = CARTESIAN_POINT ( 'NONE',  ( 2.500000000000000000, 0.0000000000000000000, 25.39999999999999858 ) ) ;
#131 = ORIENTED_EDGE ( 'NONE', *, *, #116, .F. ) ;
#132 = APPROVAL_STATUS ( 'not_yet_approved' ) ;
#133 = PLANE ( 'NONE',  #28 ) ;
#134 = CARTESIAN_POINT ( 'NONE',  ( 2.500000000000000000, 3.110602869834276865E-15, -25.39999999999999858 ) ) ;
#135 = FACE_OUTER_BOUND ( 'NONE', #92, .T. ) ;
#136 = EDGE_CURVE ( 'NONE', #150, #76, #60, .T. ) ;
#137 = CARTESIAN_POINT ( 'NONE',  ( 2.500000000000000000, 3.110602869834276865E-15, -25.39999999999999858 ) ) ;
#138 = SECURITY_CLASSIFICATION ( '', '', #118 ) ;
#139 = SHAPE_DEFINITION_REPRESENTATION ( #158, #153 ) ;
#140 = CC_DESIGN_APPROVAL ( #111, ( #42 ) ) ;
#141 = DIRECTION ( 'NONE',  ( 1.000000000000000000, 0.0000000000000000000, 0.0000000000000000000 ) ) ;
#142 = ADVANCED_FACE ( 'NONE', ( #19 ), #69, .T. ) ;
#143 = DIRECTION ( 'NONE',  ( 1.000000000000000000, 0.0000000000000000000, 0.0000000000000000000 ) ) ;
#144 = PERSON_AND_ORGANIZATION_ROLE ( 'design_owner' ) ;
#145 = COORDINATED_UNIVERSAL_TIME_OFFSET ( 5, 0, .BEHIND. ) ;
#146 = CARTESIAN_POINT ( 'NONE',  ( -2.500000000000000000, 0.0000000000000000000, 0.0000000000000000000 ) ) ;
#147 = APPLICATION_PROTOCOL_DEFINITION ( 'international standard', 'config_control_design', 1994, #59 ) ;
#148 = ORIENTED_EDGE ( 'NONE', *, *, #109, .T. ) ;
#149 = APPROVAL_DATE_TIME ( #80, #9 ) ;
#150 = VERTEX_POINT ( 'NONE', #130 ) ;
#151 = COORDINATED_UNIVERSAL_TIME_OFFSET ( 5, 0, .BEHIND. ) ;
#152 = LOCAL_TIME ( 8, 40, 40.00000000000000000, #61 ) ;
#153 = ADVANCED_BREP_SHAPE_REPRESENTATION ( 'Web Model 15404_15783', ( #94, #25 ), #47 ) ;
#154 = EDGE_CURVE ( 'NONE', #72, #102, #172, .T. ) ;
#155 = AXIS2_PLACEMENT_3D ( 'NONE', #83, #108, #163 ) ;
#156 = LOCAL_TIME ( 8, 40, 40.00000000000000000, #151 ) ;
#157 = AXIS2_PLACEMENT_3D ( 'NONE', #124, #143, #120 ) ;
#158 = PRODUCT_DEFINITION_SHAPE ( 'NONE', 'NONE',  #42 ) ;
#159 = PERSON_AND_ORGANIZATION ( #26, #67 ) ;
#160 = CC_DESIGN_APPROVAL ( #6, ( #121 ) ) ;
#161 = ORIENTED_EDGE ( 'NONE', *, *, #136, .F. ) ;
#162 =( NAMED_UNIT ( * ) PLANE_ANGLE_UNIT ( ) SI_UNIT ( $, .RADIAN. ) );
#163 = DIRECTION ( 'NONE',  ( 0.0000000000000000000, 0.0000000000000000000, 1.000000000000000000 ) ) ;
#164 = CC_DESIGN_DATE_AND_TIME_ASSIGNMENT ( #65, #44, ( #42 ) ) ;
#165 = LOCAL_TIME ( 8, 40, 40.00000000000000000, #8 ) ;
#166 = EDGE_LOOP ( 'NONE', ( #95, #131 ) ) ;
#167 = CARTESIAN_POINT ( 'NONE',  ( 2.500000000000000000, 0.0000000000000000000, 0.0000000000000000000 ) ) ;
#168 = CARTESIAN_POINT ( 'NONE',  ( -2.500000000000000000, 0.0000000000000000000, 25.39999999999999858 ) ) ;
#169 = APPROVAL_STATUS ( 'not_yet_approved' ) ;
#170 = CC_DESIGN_PERSON_AND_ORGANIZATION_ASSIGNMENT ( #29, #39, ( #138 ) ) ;
#171 = FACE_OUTER_BOUND ( 'NONE', #22, .T. ) ;
#172 = CIRCLE ( 'NONE', #12, 25.39999999999999858 ) ;
#173 = ORIENTED_EDGE ( 'NONE', *, *, #127, .F. ) ;
#174 = CC_DESIGN_DATE_AND_TIME_ASSIGNMENT ( #27, #21, ( #138 ) ) ;
#175 = CALENDAR_DATE ( 2020, 4, 11 ) ;
ENDSEC;
END-ISO-10303-21;
