ISO-10303-21;
HEADER;
FILE_DESCRIPTION (( 'STEP AP203' ),
    '1' );
FILE_NAME ('4341-E0W.STEP',
    '2015-06-17T20:53:59',
    ( 'admin' ),
    ( '' ),
    'SwSTEP 2.0',
    'SolidWorks 2014',
    '' );
FILE_SCHEMA (( 'CONFIG_CONTROL_DESIGN' ));
ENDSEC;

DATA;
#1 = DIRECTION ( 'NONE',  ( 1.000000000000000000, 0.0000000000000000000, 0.0000000000000000000 ) ) ;
#2 = CALENDAR_DATE ( 2015, 17, 6 ) ;
#3 = AXIS2_PLACEMENT_3D ( 'NONE', #168, #44, #170 ) ;
#4 = DIRECTION ( 'NONE',  ( 1.000000000000000000, 0.0000000000000000000, 0.0000000000000000000 ) ) ;
#5 = ORIENTED_EDGE ( 'NONE', *, *, #189, .T. ) ;
#6 = CONICAL_SURFACE ( 'NONE', #17, 2.999999999999999100, 0.7853981633974491700 ) ;
#7 = CARTESIAN_POINT ( 'NONE',  ( -2.999999999999999100, 3.673940397442058900E-016, -1.226518578082274500 ) ) ;
#8 = PLANE ( 'NONE',  #192 ) ;
#9 = AXIS2_PLACEMENT_3D ( 'NONE', #73, #143, #303 ) ;
#10 = DIRECTION ( 'NONE',  ( -1.000000000000000000, 0.0000000000000000000, 0.0000000000000000000 ) ) ;
#11 = APPROVAL_DATE_TIME ( #95, #36 ) ;
#12 = ORGANIZATION ( 'UNSPECIFIED', 'UNSPECIFIED', '' ) ;
#13 = DIRECTION ( 'NONE',  ( 1.000000000000000000, 0.0000000000000000000, 0.0000000000000000000 ) ) ;
#14 = CIRCLE ( 'NONE', #151, 2.803508875620629700 ) ;
#15 = DIRECTION ( 'NONE',  ( 1.000000000000000000, 0.0000000000000000000, 0.0000000000000000000 ) ) ;
#16 = APPROVAL_DATE_TIME ( #175, #157 ) ;
#17 = AXIS2_PLACEMENT_3D ( 'NONE', #250, #275, #196 ) ;
#18 = AXIS2_PLACEMENT_3D ( 'NONE', #24, #212, #148 ) ;
#19 = ORIENTED_EDGE ( 'NONE', *, *, #99, .F. ) ;
#20 = EDGE_LOOP ( 'NONE', ( #110, #35, #305, #283 ) ) ;
#21 =( LENGTH_UNIT ( ) NAMED_UNIT ( * ) SI_UNIT ( .MILLI., .METRE. ) );
#22 = DIRECTION ( 'NONE',  ( -0.0000000000000000000, -0.0000000000000000000, 1.000000000000000000 ) ) ;
#23 = CALENDAR_DATE ( 2015, 17, 6 ) ;
#24 = CARTESIAN_POINT ( 'NONE',  ( 0.0000000000000000000, 0.0000000000000000000, 0.5234814219177244000 ) ) ;
#25 =( NAMED_UNIT ( * ) SI_UNIT ( $, .STERADIAN. ) SOLID_ANGLE_UNIT ( ) );
#26 = AXIS2_PLACEMENT_3D ( 'NONE', #253, #150, #32 ) ;
#27 = DATE_AND_TIME ( #2, #134 ) ;
#28 = AXIS2_PLACEMENT_3D ( 'NONE', #249, #316, #118 ) ;
#29 = CARTESIAN_POINT ( 'NONE',  ( 0.0000000000000000000, 0.0000000000000000000, 1.476518578082275600 ) ) ;
#30 = VERTEX_POINT ( 'NONE', #318 ) ;
#31 = AXIS2_PLACEMENT_3D ( 'NONE', #321, #190, #54 ) ;
#32 = DIRECTION ( 'NONE',  ( -1.224646799147353200E-016, -1.000000000000000000, 0.0000000000000000000 ) ) ;
#33 = AXIS2_PLACEMENT_3D ( 'NONE', #220, #248, #1 ) ;
#34 = ORIENTED_EDGE ( 'NONE', *, *, #247, .F. ) ;
#35 = ORIENTED_EDGE ( 'NONE', *, *, #185, .T. ) ;
#36 = APPROVAL ( #209, 'UNSPECIFIED' ) ;
#37 = PRODUCT_DEFINITION_SHAPE ( 'NONE', 'NONE',  #291 ) ;
#38 = COORDINATED_UNIVERSAL_TIME_OFFSET ( 5, 0, .BEHIND. ) ;
#39 = AXIS2_PLACEMENT_3D ( 'NONE', #251, #87, #260 ) ;
#40 = DIRECTION ( 'NONE',  ( 0.0000000000000000000, 1.000000000000000000, 0.0000000000000000000 ) ) ;
#41 = VERTEX_POINT ( 'NONE', #281 ) ;
#42 = AXIS2_PLACEMENT_3D ( 'NONE', #88, #10, #40 ) ;
#43 = AXIS2_PLACEMENT_3D ( 'NONE', #61, #227, #13 ) ;
#44 = DIRECTION ( 'NONE',  ( 0.0000000000000000000, 0.0000000000000000000, -1.000000000000000000 ) ) ;
#45 = CARTESIAN_POINT ( 'NONE',  ( -2.803508875620629700, 0.0000000000000000000, 1.476518578082275600 ) ) ;
#46 = EDGE_CURVE ( 'NONE', #115, #30, #232, .T. ) ;
#47 = LOCAL_TIME ( 16, 53, 59.00000000000000000, #315 ) ;
#48 = DIRECTION ( 'NONE',  ( 0.0000000000000000000, 0.0000000000000000000, -1.000000000000000000 ) ) ;
#49 = CIRCLE ( 'NONE', #26, 4.599999999999993400 ) ;
#50 = EDGE_CURVE ( 'NONE', #137, #153, #176, .T. ) ;
#51 = CARTESIAN_POINT ( 'NONE',  ( 0.0000000000000000000, 0.0000000000000000000, -1.226518578082274500 ) ) ;
#52 = EDGE_CURVE ( 'NONE', #198, #30, #186, .T. ) ;
#53 = CONICAL_SURFACE ( 'NONE', #167, 2.999999999999999100, 0.7853981633974491700 ) ;
#54 = DIRECTION ( 'NONE',  ( 0.0000000000000000000, 0.0000000000000000000, -1.000000000000000000 ) ) ;
#55 = CARTESIAN_POINT ( 'NONE',  ( -2.999999999999999100, 3.673940397442058900E-016, 0.5234814219177244000 ) ) ;
#56 = DIRECTION ( 'NONE',  ( -0.9088932591463878600, 0.0000000000000000000, -0.4170288281141449300 ) ) ;
#57 = EDGE_CURVE ( 'NONE', #127, #58, #231, .T. ) ;
#58 = VERTEX_POINT ( 'NONE', #211 ) ;
#59 = CARTESIAN_POINT ( 'NONE',  ( 0.0000000000000000000, 0.0000000000000000000, 0.0000000000000000000 ) ) ;
#60 = AXIS2_PLACEMENT_3D ( 'NONE', #109, #141, #299 ) ;
#61 = CARTESIAN_POINT ( 'NONE',  ( 0.0000000000000000000, 0.0000000000000000000, 0.5234814219177244000 ) ) ;
#62 = DIRECTION ( 'NONE',  ( 1.000000000000000000, 0.0000000000000000000, 0.0000000000000000000 ) ) ;
#63 = ORIENTED_EDGE ( 'NONE', *, *, #230, .F. ) ;
#64 = ORIENTED_EDGE ( 'NONE', *, *, #50, .T. ) ;
#65 = DIRECTION ( 'NONE',  ( 1.000000000000000000, 0.0000000000000000000, 0.0000000000000000000 ) ) ;
#66 = AXIS2_PLACEMENT_3D ( 'NONE', #147, #48, #200 ) ;
#67 = DIRECTION ( 'NONE',  ( 0.7071067811865482400, 0.0000000000000000000, 0.7071067811865469100 ) ) ;
#68 = EDGE_LOOP ( 'NONE', ( #216, #264, #64, #311 ) ) ;
#69 = ORIENTED_EDGE ( 'NONE', *, *, #50, .F. ) ;
#70 = ADVANCED_FACE ( 'NONE', ( #239 ), #268, .T. ) ;
#71 = PRODUCT_DEFINITION_FORMATION_WITH_SPECIFIED_SOURCE ( 'ANY', '', #174, .NOT_KNOWN. ) ;
#72 =( NAMED_UNIT ( * ) PLANE_ANGLE_UNIT ( ) SI_UNIT ( $, .RADIAN. ) );
#73 = CARTESIAN_POINT ( 'NONE',  ( 0.0000000000000000000, 0.0000000000000000000, 1.476518578082275600 ) ) ;
#74 = ORIENTED_EDGE ( 'NONE', *, *, #99, .T. ) ;
#75 = EDGE_LOOP ( 'NONE', ( #319, #182, #93, #5 ) ) ;
#76 = EDGE_CURVE ( 'NONE', #127, #115, #272, .T. ) ;
#77 = CARTESIAN_POINT ( 'NONE',  ( -2.749999999999997800, 3.520859547548638500E-016, -1.476518578082275600 ) ) ;
#78 = CARTESIAN_POINT ( 'NONE',  ( 0.0000000000000000000, 0.0000000000000000000, 1.476518578082275600 ) ) ;
#79 = AXIS2_PLACEMENT_3D ( 'NONE', #59, #213, #188 ) ;
#80 = AXIS2_PLACEMENT_3D ( 'NONE', #262, #154, #65 ) ;
#81 = CARTESIAN_POINT ( 'NONE',  ( 0.0000000000000000000, 0.0000000000000000000, 1.476518578082275600 ) ) ;
#82 = DIRECTION ( 'NONE',  ( -1.000000000000000000, 0.0000000000000000000, 0.0000000000000000000 ) ) ;
#83 = FACE_OUTER_BOUND ( 'NONE', #199, .T. ) ;
#84 = ADVANCED_FACE ( 'NONE', ( #236 ), #172, .F. ) ;
#85 = CARTESIAN_POINT ( 'NONE',  ( 2.749999999999997800, 0.0000000000000000000, -1.476518578082275600 ) ) ;
#86 = PERSON_AND_ORGANIZATION ( #184, #12 ) ;
#87 = DIRECTION ( 'NONE',  ( 0.0000000000000000000, 0.0000000000000000000, -1.000000000000000000 ) ) ;
#88 = CARTESIAN_POINT ( 'NONE',  ( 0.0000000000000000000, 0.0000000000000000000, 5.123481421917718500 ) ) ;
#89 = EDGE_CURVE ( 'NONE', #203, #127, #191, .T. ) ;
#90 = PERSON_AND_ORGANIZATION ( #184, #12 ) ;
#91 = EDGE_LOOP ( 'NONE', ( #290, #314, #156, #19, #69 ) ) ;
#92 = APPROVAL ( #312, 'UNSPECIFIED' ) ;
#93 = ORIENTED_EDGE ( 'NONE', *, *, #46, .T. ) ;
#94 = CC_DESIGN_APPROVAL ( #92, ( #71 ) ) ;
#95 = DATE_AND_TIME ( #23, #171 ) ;
#96 = DIRECTION ( 'NONE',  ( 1.000000000000000000, 0.0000000000000000000, 0.0000000000000000000 ) ) ;
#97 = DIRECTION ( 'NONE',  ( 0.9088932591463878600, 1.113073220580229700E-016, -0.4170288281141449300 ) ) ;
#98 = PERSON_AND_ORGANIZATION ( #184, #12 ) ;
#99 = EDGE_CURVE ( 'NONE', #153, #58, #219, .T. ) ;
#100 = ADVANCED_FACE ( 'NONE', ( #254 ), #279, .T. ) ;
#101 = CC_DESIGN_PERSON_AND_ORGANIZATION_ASSIGNMENT ( #98, #313, ( #71 ) ) ;
#102 = DESIGN_CONTEXT ( 'detailed design', #130, 'design' ) ;
#103 = VERTEX_POINT ( 'NONE', #142 ) ;
#104 = FACE_OUTER_BOUND ( 'NONE', #144, .T. ) ;
#105 = PRODUCT_RELATED_PRODUCT_CATEGORY ( 'detail', '', ( #174 ) ) ;
#106 = COORDINATED_UNIVERSAL_TIME_OFFSET ( 5, 0, .BEHIND. ) ;
#107 = DIRECTION ( 'NONE',  ( -0.0000000000000000000, -0.0000000000000000000, 1.000000000000000000 ) ) ;
#108 = PERSON_AND_ORGANIZATION ( #184, #12 ) ;
#109 = CARTESIAN_POINT ( 'NONE',  ( 0.0000000000000000000, 0.0000000000000000000, -1.226518578082274500 ) ) ;
#110 = ORIENTED_EDGE ( 'NONE', *, *, #164, .F. ) ;
#111 = APPROVAL_DATE_TIME ( #27, #92 ) ;
#112 = CC_DESIGN_SECURITY_CLASSIFICATION ( #120, ( #71 ) ) ;
#113 = ORIENTED_EDGE ( 'NONE', *, *, #140, .F. ) ;
#114 = PERSON_AND_ORGANIZATION_ROLE ( 'design_supplier' ) ;
#115 = VERTEX_POINT ( 'NONE', #317 ) ;
#116 = PERSON_AND_ORGANIZATION_ROLE ( 'creator' ) ;
#117 = APPROVAL_ROLE ( '' ) ;
#118 = DIRECTION ( 'NONE',  ( -1.000000000000000000, 0.0000000000000000000, 0.0000000000000000000 ) ) ;
#119 = CC_DESIGN_APPROVAL ( #157, ( #120 ) ) ;
#120 = SECURITY_CLASSIFICATION ( '', '', #193 ) ;
#121 = DIRECTION ( 'NONE',  ( 0.0000000000000000000, 0.0000000000000000000, -1.000000000000000000 ) ) ;
#122 = CARTESIAN_POINT ( 'NONE',  ( 2.999999999999999100, 0.0000000000000000000, 0.5234814219177244000 ) ) ;
#123 = CARTESIAN_POINT ( 'NONE',  ( 2.999999999999999100, 0.0000000000000000000, -1.226518578082274500 ) ) ;
#124 = AXIS2_PLACEMENT_3D ( 'NONE', #169, #121, #307 ) ;
#125 = COORDINATED_UNIVERSAL_TIME_OFFSET ( 5, 0, .BEHIND. ) ;
#126 = ORIENTED_EDGE ( 'NONE', *, *, #52, .F. ) ;
#127 = VERTEX_POINT ( 'NONE', #255 ) ;
#128 = CC_DESIGN_PERSON_AND_ORGANIZATION_ASSIGNMENT ( #221, #205, ( #120 ) ) ;
#129 = DIRECTION ( 'NONE',  ( 0.0000000000000000000, 0.0000000000000000000, -1.000000000000000000 ) ) ;
#130 = APPLICATION_CONTEXT ( 'configuration controlled 3d designs of mechanical parts and assemblies' ) ;
#131 = ORIENTED_EDGE ( 'NONE', *, *, #57, .T. ) ;
#132 = ORIENTED_EDGE ( 'NONE', *, *, #159, .F. ) ;
#133 = CC_DESIGN_DATE_AND_TIME_ASSIGNMENT ( #201, #163, ( #120 ) ) ;
#134 = LOCAL_TIME ( 16, 53, 59.00000000000000000, #125 ) ;
#135 = AXIS2_PLACEMENT_3D ( 'NONE', #202, #238, #256 ) ;
#136 = PERSON_AND_ORGANIZATION_ROLE ( 'design_owner' ) ;
#137 = VERTEX_POINT ( 'NONE', #269 ) ;
#138 = LOCAL_TIME ( 16, 53, 59.00000000000000000, #106 ) ;
#139 = PERSON_AND_ORGANIZATION ( #184, #12 ) ;
#140 = EDGE_CURVE ( 'NONE', #203, #165, #271, .T. ) ;
#141 = DIRECTION ( 'NONE',  ( -0.0000000000000000000, -0.0000000000000000000, 1.000000000000000000 ) ) ;
#142 = CARTESIAN_POINT ( 'NONE',  ( 0.0000000000000000000, 2.816687638038908600E-016, 0.5234814219177248400 ) ) ;
#143 = DIRECTION ( 'NONE',  ( -0.0000000000000000000, -0.0000000000000000000, 1.000000000000000000 ) ) ;
#144 = EDGE_LOOP ( 'NONE', ( #113, #282, #132, #287 ) ) ;
#145 = FACE_OUTER_BOUND ( 'NONE', #158, .T. ) ;
#146 =( GEOMETRIC_REPRESENTATION_CONTEXT ( 3 ) GLOBAL_UNCERTAINTY_ASSIGNED_CONTEXT ( ( #280 ) ) GLOBAL_UNIT_ASSIGNED_CONTEXT ( ( #21, #72, #25 ) ) REPRESENTATION_CONTEXT ( 'NONE', 'WORKASPACE' ) );
#147 = CARTESIAN_POINT ( 'NONE',  ( 0.0000000000000000000, 0.0000000000000000000, 1.476518578082275600 ) ) ;
#148 = DIRECTION ( 'NONE',  ( 1.000000000000000000, 0.0000000000000000000, 0.0000000000000000000 ) ) ;
#149 = CC_DESIGN_PERSON_AND_ORGANIZATION_ASSIGNMENT ( #108, #114, ( #71 ) ) ;
#150 = DIRECTION ( 'NONE',  ( -1.000000000000000000, 1.224646799147353200E-016, 0.0000000000000000000 ) ) ;
#151 = AXIS2_PLACEMENT_3D ( 'NONE', #81, #222, #15 ) ;
#152 = APPLICATION_PROTOCOL_DEFINITION ( 'international standard', 'config_control_design', 1994, #130 ) ;
#153 = VERTEX_POINT ( 'NONE', #45 ) ;
#154 = DIRECTION ( 'NONE',  ( -0.0000000000000000000, -0.0000000000000000000, 1.000000000000000000 ) ) ;
#155 = ORIENTED_EDGE ( 'NONE', *, *, #230, .T. ) ;
#156 = ORIENTED_EDGE ( 'NONE', *, *, #217, .F. ) ;
#157 = APPROVAL ( #245, 'UNSPECIFIED' ) ;
#158 = EDGE_LOOP ( 'NONE', ( #126, #34, #310, #74, #183 ) ) ;
#159 = EDGE_CURVE ( 'NONE', #115, #127, #257, .T. ) ;
#160 = CARTESIAN_POINT ( 'NONE',  ( 2.803508875620629700, 3.553624284176028800E-016, 1.476518578082275600 ) ) ;
#161 = CALENDAR_DATE ( 2015, 17, 6 ) ;
#162 = PERSON_AND_ORGANIZATION ( #184, #12 ) ;
#163 = DATE_TIME_ROLE ( 'classification_date' ) ;
#164 = EDGE_CURVE ( 'NONE', #103, #137, #285, .T. ) ;
#165 = VERTEX_POINT ( 'NONE', #85 ) ;
#166 = ORIENTED_EDGE ( 'NONE', *, *, #140, .T. ) ;
#167 = AXIS2_PLACEMENT_3D ( 'NONE', #51, #258, #96 ) ;
#168 = CARTESIAN_POINT ( 'NONE',  ( 0.0000000000000000000, 0.0000000000000000000, 1.386362267085186700 ) ) ;
#169 = CARTESIAN_POINT ( 'NONE',  ( 0.0000000000000000000, 0.0000000000000000000, -1.476518578082275600 ) ) ;
#170 = DIRECTION ( 'NONE',  ( -1.000000000000000000, 0.0000000000000000000, 0.0000000000000000000 ) ) ;
#171 = LOCAL_TIME ( 16, 53, 59.00000000000000000, #38 ) ;
#172 = SPHERICAL_SURFACE ( 'NONE', #42, 4.599999999999993400 ) ;
#173 = CIRCLE ( 'NONE', #9, 2.803508875620629700 ) ;
#174 = PRODUCT ( '4341-E0W', '4341-E0W', '', ( #229 ) ) ;
#175 = DATE_AND_TIME ( #161, #138 ) ;
#176 = CIRCLE ( 'NONE', #80, 2.803508875620629700 ) ;
#177 = MANIFOLD_SOLID_BREP ( '4341-001-1-solid1', #288 ) ;
#178 = APPROVAL_ROLE ( '' ) ;
#179 = AXIS2_PLACEMENT_3D ( 'NONE', #78, #22, #4 ) ;
#180 = DATE_AND_TIME ( #302, #261 ) ;
#181 = ADVANCED_FACE ( 'NONE', ( #274 ), #208, .T. ) ;
#182 = ORIENTED_EDGE ( 'NONE', *, *, #76, .T. ) ;
#183 = ORIENTED_EDGE ( 'NONE', *, *, #189, .F. ) ;
#184 = PERSON ( 'UNSPECIFIED', 'UNSPECIFIED', 'UNSPECIFIED', ('UNSPECIFIED'), ('UNSPECIFIED'), ('UNSPECIFIED') ) ;
#185 = EDGE_CURVE ( 'NONE', #103, #41, #49, .T. ) ;
#186 = LINE ( 'NONE', #244, #225 ) ;
#187 = CIRCLE ( 'NONE', #124, 2.749999999999997800 ) ;
#188 = DIRECTION ( 'NONE',  ( 1.000000000000000000, 0.0000000000000000000, 0.0000000000000000000 ) ) ;
#189 = EDGE_CURVE ( 'NONE', #30, #58, #263, .T. ) ;
#190 = DIRECTION ( 'NONE',  ( 1.000000000000000000, -0.0000000000000000000, 0.0000000000000000000 ) ) ;
#191 = LINE ( 'NONE', #7, #240 ) ;
#192 = AXIS2_PLACEMENT_3D ( 'NONE', #308, #277, #62 ) ;
#193 = SECURITY_CLASSIFICATION_LEVEL ( 'unclassified' ) ;
#194 = CIRCLE ( 'NONE', #3, 2.999999999999999100 ) ;
#195 = ADVANCED_FACE ( 'NONE', ( #104 ), #6, .T. ) ;
#196 = DIRECTION ( 'NONE',  ( 1.000000000000000000, 0.0000000000000000000, 0.0000000000000000000 ) ) ;
#197 = EDGE_CURVE ( 'NONE', #165, #115, #300, .T. ) ;
#198 = VERTEX_POINT ( 'NONE', #160 ) ;
#199 = EDGE_LOOP ( 'NONE', ( #155, #166 ) ) ;
#200 = DIRECTION ( 'NONE',  ( -1.000000000000000000, 0.0000000000000000000, 0.0000000000000000000 ) ) ;
#201 = DATE_AND_TIME ( #228, #47 ) ;
#202 = CARTESIAN_POINT ( 'NONE',  ( 0.0000000000000000000, 0.0000000000000000000, 5.123481421917718500 ) ) ;
#203 = VERTEX_POINT ( 'NONE', #77 ) ;
#204 = EDGE_CURVE ( 'NONE', #153, #41, #173, .T. ) ;
#205 = PERSON_AND_ORGANIZATION_ROLE ( 'classification_officer' ) ;
#206 = APPLICATION_CONTEXT ( 'configuration controlled 3d designs of mechanical parts and assemblies' ) ;
#207 = EDGE_LOOP ( 'NONE', ( #278, #131, #292, #259 ) ) ;
#208 = CYLINDRICAL_SURFACE ( 'NONE', #18, 2.999999999999999100 ) ;
#209 = APPROVAL_STATUS ( 'not_yet_approved' ) ;
#210 = CC_DESIGN_APPROVAL ( #36, ( #291 ) ) ;
#211 = CARTESIAN_POINT ( 'NONE',  ( -2.999999999999999100, 3.673940397442058900E-016, 1.386362267085186700 ) ) ;
#212 = DIRECTION ( 'NONE',  ( -0.0000000000000000000, -0.0000000000000000000, 1.000000000000000000 ) ) ;
#213 = DIRECTION ( 'NONE',  ( 0.0000000000000000000, 0.0000000000000000000, 1.000000000000000000 ) ) ;
#214 = APPLICATION_PROTOCOL_DEFINITION ( 'international standard', 'config_control_design', 1994, #206 ) ;
#215 = CC_DESIGN_PERSON_AND_ORGANIZATION_ASSIGNMENT ( #90, #116, ( #291 ) ) ;
#216 = ORIENTED_EDGE ( 'NONE', *, *, #185, .F. ) ;
#217 = EDGE_CURVE ( 'NONE', #58, #30, #194, .T. ) ;
#218 = ORIENTED_EDGE ( 'NONE', *, *, #76, .F. ) ;
#219 = LINE ( 'NONE', #297, #241 ) ;
#220 = CARTESIAN_POINT ( 'NONE',  ( 0.0000000000000000000, 0.0000000000000000000, -1.226518578082274500 ) ) ;
#221 = PERSON_AND_ORGANIZATION ( #184, #12 ) ;
#222 = DIRECTION ( 'NONE',  ( -0.0000000000000000000, -0.0000000000000000000, 1.000000000000000000 ) ) ;
#223 = ADVANCED_FACE ( 'NONE', ( #145 ), #267, .T. ) ;
#224 = VECTOR ( 'NONE', #107, 1000.000000000000000 ) ;
#225 = VECTOR ( 'NONE', #97, 1000.000000000000100 ) ;
#226 = VECTOR ( 'NONE', #301, 1000.000000000000000 ) ;
#227 = DIRECTION ( 'NONE',  ( -0.0000000000000000000, -0.0000000000000000000, 1.000000000000000000 ) ) ;
#228 = CALENDAR_DATE ( 2015, 17, 6 ) ;
#229 = MECHANICAL_CONTEXT ( 'NONE', #206, 'mechanical' ) ;
#230 = EDGE_CURVE ( 'NONE', #165, #203, #187, .T. ) ;
#231 = LINE ( 'NONE', #55, #224 ) ;
#232 = LINE ( 'NONE', #122, #226 ) ;
#233 = VECTOR ( 'NONE', #67, 999.9999999999998900 ) ;
#234 = APPROVAL_ROLE ( '' ) ;
#235 = DATE_TIME_ROLE ( 'creation_date' ) ;
#236 = FACE_OUTER_BOUND ( 'NONE', #20, .T. ) ;
#237 = PERSON_AND_ORGANIZATION ( #184, #12 ) ;
#238 = DIRECTION ( 'NONE',  ( -1.000000000000000000, 0.0000000000000000000, 0.0000000000000000000 ) ) ;
#239 = FACE_OUTER_BOUND ( 'NONE', #207, .T. ) ;
#240 = VECTOR ( 'NONE', #298, 999.9999999999998900 ) ;
#241 = VECTOR ( 'NONE', #56, 1000.000000000000100 ) ;
#242 = CIRCLE ( 'NONE', #179, 2.803508875620629700 ) ;
#243 = CC_DESIGN_DATE_AND_TIME_ASSIGNMENT ( #180, #235, ( #291 ) ) ;
#244 = CARTESIAN_POINT ( 'NONE',  ( 2.803508875620629200, 3.433308170909998300E-016, 1.476518578082275600 ) ) ;
#245 = APPROVAL_STATUS ( 'not_yet_approved' ) ;
#246 = EDGE_LOOP ( 'NONE', ( #320, #63, #266, #218 ) ) ;
#247 = EDGE_CURVE ( 'NONE', #41, #198, #242, .T. ) ;
#248 = DIRECTION ( 'NONE',  ( -0.0000000000000000000, -0.0000000000000000000, 1.000000000000000000 ) ) ;
#249 = CARTESIAN_POINT ( 'NONE',  ( 0.0000000000000000000, 0.0000000000000000000, 1.386362267085186700 ) ) ;
#250 = CARTESIAN_POINT ( 'NONE',  ( 0.0000000000000000000, 0.0000000000000000000, -1.226518578082274500 ) ) ;
#251 = CARTESIAN_POINT ( 'NONE',  ( 0.0000000000000000000, 0.0000000000000000000, -1.476518578082275600 ) ) ;
#252 = EDGE_CURVE ( 'NONE', #198, #137, #14, .T. ) ;
#253 = CARTESIAN_POINT ( 'NONE',  ( 0.0000000000000000000, 0.0000000000000000000, 5.123481421917718500 ) ) ;
#254 = FACE_OUTER_BOUND ( 'NONE', #91, .T. ) ;
#255 = CARTESIAN_POINT ( 'NONE',  ( -2.999999999999999100, 3.673940397442058900E-016, -1.226518578082274500 ) ) ;
#256 = DIRECTION ( 'NONE',  ( 0.0000000000000000000, 1.000000000000000000, 0.0000000000000000000 ) ) ;
#257 = CIRCLE ( 'NONE', #33, 2.999999999999999100 ) ;
#258 = DIRECTION ( 'NONE',  ( -0.0000000000000000000, -0.0000000000000000000, 1.000000000000000000 ) ) ;
#259 = ORIENTED_EDGE ( 'NONE', *, *, #46, .F. ) ;
#260 = DIRECTION ( 'NONE',  ( 1.000000000000000000, 0.0000000000000000000, 0.0000000000000000000 ) ) ;
#261 = LOCAL_TIME ( 16, 53, 59.00000000000000000, #284 ) ;
#262 = CARTESIAN_POINT ( 'NONE',  ( 0.0000000000000000000, 0.0000000000000000000, 1.476518578082275600 ) ) ;
#263 = CIRCLE ( 'NONE', #28, 2.999999999999999100 ) ;
#264 = ORIENTED_EDGE ( 'NONE', *, *, #164, .T. ) ;
#265 = FACE_OUTER_BOUND ( 'NONE', #68, .T. ) ;
#266 = ORIENTED_EDGE ( 'NONE', *, *, #197, .T. ) ;
#267 = CONICAL_SURFACE ( 'NONE', #270, 2.803508875620629200, 1.140622467674063500 ) ;
#268 = CYLINDRICAL_SURFACE ( 'NONE', #43, 2.999999999999999100 ) ;
#269 = CARTESIAN_POINT ( 'NONE',  ( 0.0000000000000000000, 2.803508875620629200, 1.476518578082275800 ) ) ;
#270 = AXIS2_PLACEMENT_3D ( 'NONE', #29, #129, #82 ) ;
#271 = CIRCLE ( 'NONE', #39, 2.749999999999997800 ) ;
#272 = CIRCLE ( 'NONE', #60, 2.999999999999999100 ) ;
#273 = APPROVAL_PERSON_ORGANIZATION ( #237, #157, #234 ) ;
#274 = FACE_OUTER_BOUND ( 'NONE', #75, .T. ) ;
#275 = DIRECTION ( 'NONE',  ( -0.0000000000000000000, -0.0000000000000000000, 1.000000000000000000 ) ) ;
#276 = APPROVAL_PERSON_ORGANIZATION ( #86, #92, #178 ) ;
#277 = DIRECTION ( 'NONE',  ( 0.0000000000000000000, -0.0000000000000000000, 1.000000000000000000 ) ) ;
#278 = ORIENTED_EDGE ( 'NONE', *, *, #159, .T. ) ;
#279 = CONICAL_SURFACE ( 'NONE', #66, 2.803508875620629200, 1.140622467674063500 ) ;
#280 = UNCERTAINTY_MEASURE_WITH_UNIT (LENGTH_MEASURE( 1.000000000000000100E-005 ), #21, 'distance_accuracy_value', 'NONE');
#281 = CARTESIAN_POINT ( 'NONE',  ( -3.433308170909998300E-016, -2.803508875620629200, 1.476518578082275800 ) ) ;
#282 = ORIENTED_EDGE ( 'NONE', *, *, #89, .T. ) ;
#283 = ORIENTED_EDGE ( 'NONE', *, *, #252, .T. ) ;
#284 = COORDINATED_UNIVERSAL_TIME_OFFSET ( 5, 0, .BEHIND. ) ;
#285 = CIRCLE ( 'NONE', #31, 4.599999999999993400 ) ;
#286 = ADVANCED_FACE ( 'NONE', ( #83 ), #8, .F. ) ;
#287 = ORIENTED_EDGE ( 'NONE', *, *, #197, .F. ) ;
#288 = CLOSED_SHELL ( 'NONE', ( #100, #195, #70, #84, #304, #181, #286, #295, #223 ) ) ;
#289 = SHAPE_DEFINITION_REPRESENTATION ( #37, #294 ) ;
#290 = ORIENTED_EDGE ( 'NONE', *, *, #252, .F. ) ;
#291 = PRODUCT_DEFINITION ( 'UNKNOWN', '', #71, #102 ) ;
#292 = ORIENTED_EDGE ( 'NONE', *, *, #217, .T. ) ;
#293 = FACE_OUTER_BOUND ( 'NONE', #246, .T. ) ;
#294 = ADVANCED_BREP_SHAPE_REPRESENTATION ( '4341-E0W', ( #177, #79 ), #146 ) ;
#295 = ADVANCED_FACE ( 'NONE', ( #293 ), #53, .T. ) ;
#296 = CC_DESIGN_PERSON_AND_ORGANIZATION_ASSIGNMENT ( #162, #136, ( #174 ) ) ;
#297 = CARTESIAN_POINT ( 'NONE',  ( -2.803508875620629200, 0.0000000000000000000, 1.476518578082275600 ) ) ;
#298 = DIRECTION ( 'NONE',  ( -0.7071067811865482400, 8.659560562354941500E-017, 0.7071067811865469100 ) ) ;
#299 = DIRECTION ( 'NONE',  ( 1.000000000000000000, 0.0000000000000000000, 0.0000000000000000000 ) ) ;
#300 = LINE ( 'NONE', #123, #233 ) ;
#301 = DIRECTION ( 'NONE',  ( -0.0000000000000000000, -0.0000000000000000000, 1.000000000000000000 ) ) ;
#302 = CALENDAR_DATE ( 2015, 17, 6 ) ;
#303 = DIRECTION ( 'NONE',  ( 1.000000000000000000, 0.0000000000000000000, 0.0000000000000000000 ) ) ;
#304 = ADVANCED_FACE ( 'NONE', ( #265 ), #306, .F. ) ;
#305 = ORIENTED_EDGE ( 'NONE', *, *, #247, .T. ) ;
#306 = SPHERICAL_SURFACE ( 'NONE', #135, 4.599999999999993400 ) ;
#307 = DIRECTION ( 'NONE',  ( 1.000000000000000000, 0.0000000000000000000, 0.0000000000000000000 ) ) ;
#308 = CARTESIAN_POINT ( 'NONE',  ( 0.0000000000000000000, 0.0000000000000000000, -1.476518578082275600 ) ) ;
#309 = APPROVAL_PERSON_ORGANIZATION ( #139, #36, #117 ) ;
#310 = ORIENTED_EDGE ( 'NONE', *, *, #204, .F. ) ;
#311 = ORIENTED_EDGE ( 'NONE', *, *, #204, .T. ) ;
#312 = APPROVAL_STATUS ( 'not_yet_approved' ) ;
#313 = PERSON_AND_ORGANIZATION_ROLE ( 'creator' ) ;
#314 = ORIENTED_EDGE ( 'NONE', *, *, #52, .T. ) ;
#315 = COORDINATED_UNIVERSAL_TIME_OFFSET ( 5, 0, .BEHIND. ) ;
#316 = DIRECTION ( 'NONE',  ( 0.0000000000000000000, 0.0000000000000000000, -1.000000000000000000 ) ) ;
#317 = CARTESIAN_POINT ( 'NONE',  ( 2.999999999999999100, 0.0000000000000000000, -1.226518578082274500 ) ) ;
#318 = CARTESIAN_POINT ( 'NONE',  ( 2.999999999999999100, 0.0000000000000000000, 1.386362267085186700 ) ) ;
#319 = ORIENTED_EDGE ( 'NONE', *, *, #57, .F. ) ;
#320 = ORIENTED_EDGE ( 'NONE', *, *, #89, .F. ) ;
#321 = CARTESIAN_POINT ( 'NONE',  ( 0.0000000000000000000, 0.0000000000000000000, 5.123481421917718500 ) ) ;
ENDSEC;
END-ISO-10303-21;
