ISO-10303-21;
HEADER;
FILE_DESCRIPTION (( 'STEP AP214' ),
    '1' );
FILE_NAME ('3325-E0W.STEP',
    '2010-08-27T13:04:28',
    ( 'Admin' ),
    ( 'Thorlabs, Inc.' ),
    'SwSTEP 2.0',
    'SolidWorks 2009',
    '' );
FILE_SCHEMA (( 'AUTOMOTIVE_DESIGN' ));
ENDSEC;

DATA;
#1 = ORIENTED_EDGE ( 'NONE', *, *, #11, .F. ) ;
#2 = ORIENTED_EDGE ( 'NONE', *, *, #19, .T. ) ;
#3 = EDGE_LOOP ( 'NONE', ( #2, #25 ) ) ;
#4 = ADVANCED_FACE ( 'NONE', ( #45 ), #66, .T. ) ;
#5 = ORIENTED_EDGE ( 'NONE', *, *, #9, .T. ) ;
#6 = ORIENTED_EDGE ( 'NONE', *, *, #40, .T. ) ;
#7 = CLOSED_SHELL ( 'NONE', ( #42, #39, #4, #27, #34 ) ) ;
#8 = ORIENTED_EDGE ( 'NONE', *, *, #33, .T. ) ;
#9 = EDGE_CURVE ( 'NONE', #22, #12, #70, .T. ) ;
#10 = ORIENTED_EDGE ( 'NONE', *, *, #26, .F. ) ;
#11 = EDGE_CURVE ( 'NONE', #15, #12, #90, .T. ) ;
#12 = VERTEX_POINT ( 'NONE', #83 ) ;
#13 = ORIENTED_EDGE ( 'NONE', *, *, #20, .T. ) ;
#14 = VERTEX_POINT ( 'NONE', #75 ) ;
#15 = VERTEX_POINT ( 'NONE', #74 ) ;
#16 = ORIENTED_EDGE ( 'NONE', *, *, #19, .F. ) ;
#17 = EDGE_LOOP ( 'NONE', ( #18, #13, #16, #38 ) ) ;
#18 = ORIENTED_EDGE ( 'NONE', *, *, #11, .T. ) ;
#19 = EDGE_CURVE ( 'NONE', #37, #14, #95, .T. ) ;
#20 = EDGE_CURVE ( 'NONE', #12, #14, #96, .T. ) ;
#21 = EDGE_LOOP ( 'NONE', ( #23, #5, #1 ) ) ;
#22 = VERTEX_POINT ( 'NONE', #89 ) ;
#23 = ORIENTED_EDGE ( 'NONE', *, *, #24, .F. ) ;
#24 = EDGE_CURVE ( 'NONE', #22, #15, #88, .T. ) ;
#25 = ORIENTED_EDGE ( 'NONE', *, *, #26, .T. ) ;
#26 = EDGE_CURVE ( 'NONE', #14, #37, #137, .T. ) ;
#27 = ADVANCED_FACE ( 'NONE', ( #179 ), #228, .T. ) ;
#28 = EDGE_LOOP ( 'NONE', ( #29, #30, #32 ) ) ;
#29 = ORIENTED_EDGE ( 'NONE', *, *, #9, .F. ) ;
#30 = ORIENTED_EDGE ( 'NONE', *, *, #24, .T. ) ;
#31 = EDGE_LOOP ( 'NONE', ( #36, #8, #6, #10 ) ) ;
#32 = ORIENTED_EDGE ( 'NONE', *, *, #33, .F. ) ;
#33 = EDGE_CURVE ( 'NONE', #12, #15, #227, .T. ) ;
#34 = ADVANCED_FACE ( 'NONE', ( #217 ), #199, .T. ) ;
#35 = LENGTH_MEASURE_WITH_UNIT ( LENGTH_MEASURE( 0.02539999999999999900 ), #110 );
#36 = ORIENTED_EDGE ( 'NONE', *, *, #20, .F. ) ;
#37 = VERTEX_POINT ( 'NONE', #198 ) ;
#38 = ORIENTED_EDGE ( 'NONE', *, *, #40, .F. ) ;
#39 = ADVANCED_FACE ( 'NONE', ( #193 ), #160, .T. ) ;
#40 = EDGE_CURVE ( 'NONE', #15, #37, #154, .T. ) ;
#41 = MANIFOLD_SOLID_BREP ( 'NONE', #7 ) ;
#42 = ADVANCED_FACE ( 'NONE', ( #172 ), #115, .T. ) ;
#43 =( LENGTH_UNIT ( ) NAMED_UNIT ( * ) SI_UNIT ( $, .METRE. ) );
#44 = COLOUR_RGB ( '',1.000000000000000000, 1.000000000000000000, 1.000000000000000000 ) ;
#45 = FACE_OUTER_BOUND ( 'NONE', #3, .T. ) ;
#46 =( CONVERSION_BASED_UNIT ( 'INCH', #35 ) LENGTH_UNIT ( ) NAMED_UNIT ( #109 ) );
#47 = PRESENTATION_STYLE_ASSIGNMENT (( #48 ) ) ;
#48 = SURFACE_STYLE_USAGE ( .BOTH. , #50 ) ;
#49 = FILL_AREA_STYLE ('',( #53 ) ) ;
#50 = SURFACE_SIDE_STYLE ('',( #52 ) ) ;
#51 = STYLED_ITEM ( 'NONE', ( #47 ), #4 ) ;
#52 = SURFACE_STYLE_FILL_AREA ( #49 ) ;
#53 = FILL_AREA_STYLE_COLOUR ( '', #44 ) ;
#54 = MECHANICAL_DESIGN_GEOMETRIC_PRESENTATION_REPRESENTATION (  '', ( #51 ), #61 ) ;
#55 = PRESENTATION_LAYER_ASSIGNMENT (  '', '', ( #51 ) ) ;
#56 = LENGTH_MEASURE_WITH_UNIT ( LENGTH_MEASURE( 0.02539999999999999900 ), #43 );
#57 =( CONVERSION_BASED_UNIT ( 'INCH', #56 ) LENGTH_UNIT ( ) NAMED_UNIT ( #58 ) );
#58 = DIMENSIONAL_EXPONENTS ( 1.000000000000000000, 0.0000000000000000000, 0.0000000000000000000, 0.0000000000000000000, 0.0000000000000000000, 0.0000000000000000000, 0.0000000000000000000 ) ;
#59 = DIRECTION ( 'NONE',  ( -1.224606353822377300E-016, 1.000000000000000000, 0.0000000000000000000 ) ) ;
#60 = DIRECTION ( 'NONE',  ( 1.000000000000000000, 1.224606353822377300E-016, 3.749151804555343600E-032 ) ) ;
#61 =( GEOMETRIC_REPRESENTATION_CONTEXT ( 3 ) GLOBAL_UNCERTAINTY_ASSIGNED_CONTEXT ( ( #62 ) ) GLOBAL_UNIT_ASSIGNED_CONTEXT ( ( #57, #64, #63 ) ) REPRESENTATION_CONTEXT ( 'NONE', 'WORKASPACE' ) );
#62 = UNCERTAINTY_MEASURE_WITH_UNIT (LENGTH_MEASURE( 1.000000000000000100E-005 ), #57, 'distance_accuracy_value', 'NONE');
#63 =( NAMED_UNIT ( * ) SI_UNIT ( $, .STERADIAN. ) SOLID_ANGLE_UNIT ( ) );
#64 =( NAMED_UNIT ( * ) PLANE_ANGLE_UNIT ( ) SI_UNIT ( $, .RADIAN. ) );
#65 = DIRECTION ( 'NONE',  ( -0.0000000000000000000, 3.061515884555943100E-016, -1.000000000000000000 ) ) ;
#66 = PLANE ( 'NONE',  #67 ) ;
#67 = AXIS2_PLACEMENT_3D ( 'NONE', #72, #65, #73 ) ;
#68 = CARTESIAN_POINT ( 'NONE',  ( 0.0000000000000000000, 9.374988405541848500E-017, -0.8057086614173298900 ) ) ;
#69 = AXIS2_PLACEMENT_3D ( 'NONE', #68, #60, #59 ) ;
#70 = CIRCLE ( 'NONE', #69, 0.8539370078740193800 ) ;
#71 =( NAMED_UNIT ( * ) PLANE_ANGLE_UNIT ( ) SI_UNIT ( $, .RADIAN. ) );
#72 = CARTESIAN_POINT ( 'NONE',  ( 0.0000000000000000000, 1.870658524736546400E-017, -0.04822834645669295300 ) ) ;
#73 = DIRECTION ( 'NONE',  ( 0.0000000000000000000, 1.000000000000000000, 3.061515884555943100E-016 ) ) ;
#74 = CARTESIAN_POINT ( 'NONE',  ( 0.0000000000000000000, 0.2500000000000011100, 0.01081348366927618200 ) ) ;
#75 = CARTESIAN_POINT ( 'NONE',  ( 3.061515884555945600E-017, -0.2499999999999999200, -0.04822834645669307800 ) ) ;
#76 = CARTESIAN_POINT ( 'NONE',  ( 0.0000000000000000000, 6.308351689746712100E-019, 0.01081348366927610500 ) ) ;
#77 = DIRECTION ( 'NONE',  ( 0.0000000000000000000, 1.000000000000000000, 3.073328992872296900E-016 ) ) ;
#78 = DIRECTION ( 'NONE',  ( -0.0000000000000000000, 3.061515884555943100E-016, -1.000000000000000000 ) ) ;
#79 = CARTESIAN_POINT ( 'NONE',  ( 0.0000000000000000000, 1.870658524736547600E-017, -0.04822834645669300100 ) ) ;
#80 = DIRECTION ( 'NONE',  ( -0.0000000000000000000, 3.061515884555943100E-016, -1.000000000000000000 ) ) ;
#81 = VECTOR ( 'NONE', #80, 39.37007874015748100 ) ;
#82 = CARTESIAN_POINT ( 'NONE',  ( 3.061515884555948700E-017, -0.2500000000000004400, -0.04822834645669300100 ) ) ;
#83 = CARTESIAN_POINT ( 'NONE',  ( 3.061515884555957300E-017, -0.2500000000000012800, 0.01081348366927596800 ) ) ;
#84 = DIRECTION ( 'NONE',  ( 0.0000000000000000000, 0.0000000000000000000, 1.000000000000000000 ) ) ;
#85 = DIRECTION ( 'NONE',  ( -1.000000000000000000, 0.0000000000000000000, 0.0000000000000000000 ) ) ;
#86 = CARTESIAN_POINT ( 'NONE',  ( 0.0000000000000000000, 9.374988405541848500E-017, -0.8057086614173298900 ) ) ;
#87 = AXIS2_PLACEMENT_3D ( 'NONE', #86, #85, #84 ) ;
#88 = CIRCLE ( 'NONE', #87, 0.8539370078740193800 ) ;
#89 = CARTESIAN_POINT ( 'NONE',  ( 0.0000000000000000000, -1.153974530659002200E-016, 0.04822834645668951800 ) ) ;
#90 = CIRCLE ( 'NONE', #94, 0.2500000000000009400 ) ;
#91 = AXIS2_PLACEMENT_3D ( 'NONE', #79, #78, #77 ) ;
#92 = DIRECTION ( 'NONE',  ( 0.0000000000000000000, 1.000000000000000000, 3.073328992872284500E-016 ) ) ;
#93 = DIRECTION ( 'NONE',  ( -0.0000000000000000000, 3.061515884555943100E-016, -1.000000000000000000 ) ) ;
#94 = AXIS2_PLACEMENT_3D ( 'NONE', #76, #93, #92 ) ;
#95 = CIRCLE ( 'NONE', #91, 0.2499999999999999700 ) ;
#96 = LINE ( 'NONE', #82, #81 ) ;
#97 =( GEOMETRIC_REPRESENTATION_CONTEXT ( 3 ) GLOBAL_UNCERTAINTY_ASSIGNED_CONTEXT ( ( #98 ) ) GLOBAL_UNIT_ASSIGNED_CONTEXT ( ( #101, #100, #99 ) ) REPRESENTATION_CONTEXT ( 'NONE', 'WORKASPACE' ) );
#98 = UNCERTAINTY_MEASURE_WITH_UNIT (LENGTH_MEASURE( 1.000000000000000100E-005 ), #101, 'distance_accuracy_value', 'NONE');
#99 =( NAMED_UNIT ( * ) SI_UNIT ( $, .STERADIAN. ) SOLID_ANGLE_UNIT ( ) );
#100 =( NAMED_UNIT ( * ) PLANE_ANGLE_UNIT ( ) SI_UNIT ( $, .RADIAN. ) );
#101 =( CONVERSION_BASED_UNIT ( 'INCH', #122 ) LENGTH_UNIT ( ) NAMED_UNIT ( #123 ) );
#102 = UNCERTAINTY_MEASURE_WITH_UNIT (LENGTH_MEASURE( 1.000000000000000100E-005 ), #105, 'distance_accuracy_value', 'NONE');
#103 =( NAMED_UNIT ( * ) SI_UNIT ( $, .STERADIAN. ) SOLID_ANGLE_UNIT ( ) );
#104 =( NAMED_UNIT ( * ) PLANE_ANGLE_UNIT ( ) SI_UNIT ( $, .RADIAN. ) );
#105 =( CONVERSION_BASED_UNIT ( 'INCH', #106 ) LENGTH_UNIT ( ) NAMED_UNIT ( #107 ) );
#106 = LENGTH_MEASURE_WITH_UNIT ( LENGTH_MEASURE( 0.02539999999999999900 ), #161 );
#107 = DIMENSIONAL_EXPONENTS ( 1.000000000000000000, 0.0000000000000000000, 0.0000000000000000000, 0.0000000000000000000, 0.0000000000000000000, 0.0000000000000000000, 0.0000000000000000000 ) ;
#108 =( NAMED_UNIT ( * ) SI_UNIT ( $, .STERADIAN. ) SOLID_ANGLE_UNIT ( ) );
#109 = DIMENSIONAL_EXPONENTS ( 1.000000000000000000, 0.0000000000000000000, 0.0000000000000000000, 0.0000000000000000000, 0.0000000000000000000, 0.0000000000000000000, 0.0000000000000000000 ) ;
#110 =( LENGTH_UNIT ( ) NAMED_UNIT ( * ) SI_UNIT ( $, .METRE. ) );
#111 = DIRECTION ( 'NONE',  ( 0.0000000000000000000, 1.000000000000000000, 3.073328992872290500E-016 ) ) ;
#112 = DIRECTION ( 'NONE',  ( -0.0000000000000000000, 3.061515884555943100E-016, -1.000000000000000000 ) ) ;
#113 = CARTESIAN_POINT ( 'NONE',  ( 0.0000000000000000000, 1.870658524736545100E-017, -0.04822834645669292500 ) ) ;
#114 = AXIS2_PLACEMENT_3D ( 'NONE', #113, #112, #111 ) ;
#115 = CYLINDRICAL_SURFACE ( 'NONE', #114, 0.2500000000000005000 ) ;
#116 =( GEOMETRIC_REPRESENTATION_CONTEXT ( 3 ) GLOBAL_UNCERTAINTY_ASSIGNED_CONTEXT ( ( #102 ) ) GLOBAL_UNIT_ASSIGNED_CONTEXT ( ( #105, #104, #103 ) ) REPRESENTATION_CONTEXT ( 'NONE', 'WORKASPACE' ) );
#117 =( GEOMETRIC_REPRESENTATION_CONTEXT ( 3 ) GLOBAL_UNCERTAINTY_ASSIGNED_CONTEXT ( ( #118 ) ) GLOBAL_UNIT_ASSIGNED_CONTEXT ( ( #121, #120, #119 ) ) REPRESENTATION_CONTEXT ( 'NONE', 'WORKASPACE' ) );
#118 = UNCERTAINTY_MEASURE_WITH_UNIT (LENGTH_MEASURE( 1.000000000000000100E-005 ), #121, 'distance_accuracy_value', 'NONE');
#119 =( NAMED_UNIT ( * ) SI_UNIT ( $, .STERADIAN. ) SOLID_ANGLE_UNIT ( ) );
#120 =( NAMED_UNIT ( * ) PLANE_ANGLE_UNIT ( ) SI_UNIT ( $, .RADIAN. ) );
#121 =( CONVERSION_BASED_UNIT ( 'INCH', #180 ) LENGTH_UNIT ( ) NAMED_UNIT ( #181 ) );
#122 = LENGTH_MEASURE_WITH_UNIT ( LENGTH_MEASURE( 0.02539999999999999900 ), #124 );
#123 = DIMENSIONAL_EXPONENTS ( 1.000000000000000000, 0.0000000000000000000, 0.0000000000000000000, 0.0000000000000000000, 0.0000000000000000000, 0.0000000000000000000, 0.0000000000000000000 ) ;
#124 =( LENGTH_UNIT ( ) NAMED_UNIT ( * ) SI_UNIT ( $, .METRE. ) );
#125 = MECHANICAL_DESIGN_GEOMETRIC_PRESENTATION_REPRESENTATION (  '', ( #127 ), #97 ) ;
#126 = PRESENTATION_LAYER_ASSIGNMENT (  '', '', ( #127 ) ) ;
#127 = STYLED_ITEM ( 'NONE', ( #128 ), #27 ) ;
#128 = PRESENTATION_STYLE_ASSIGNMENT (( #129 ) ) ;
#129 = SURFACE_STYLE_USAGE ( .BOTH. , #130 ) ;
#130 = SURFACE_SIDE_STYLE ('',( #131 ) ) ;
#131 = SURFACE_STYLE_FILL_AREA ( #132 ) ;
#132 = FILL_AREA_STYLE ('',( #133 ) ) ;
#133 = FILL_AREA_STYLE_COLOUR ( '', #134 ) ;
#134 = COLOUR_RGB ( '',1.000000000000000000, 1.000000000000000000, 1.000000000000000000 ) ;
#135 = DIRECTION ( 'NONE',  ( 0.0000000000000000000, 1.000000000000000000, 3.073328992872296900E-016 ) ) ;
#136 = DIRECTION ( 'NONE',  ( -0.0000000000000000000, 3.061515884555943100E-016, -1.000000000000000000 ) ) ;
#137 = CIRCLE ( 'NONE', #178, 0.2499999999999999700 ) ;
#138 =( CONVERSION_BASED_UNIT ( 'INCH', #139 ) LENGTH_UNIT ( ) NAMED_UNIT ( #140 ) );
#139 = LENGTH_MEASURE_WITH_UNIT ( LENGTH_MEASURE( 0.02539999999999999900 ), #141 );
#140 = DIMENSIONAL_EXPONENTS ( 1.000000000000000000, 0.0000000000000000000, 0.0000000000000000000, 0.0000000000000000000, 0.0000000000000000000, 0.0000000000000000000, 0.0000000000000000000 ) ;
#141 =( LENGTH_UNIT ( ) NAMED_UNIT ( * ) SI_UNIT ( $, .METRE. ) );
#142 = MECHANICAL_DESIGN_GEOMETRIC_PRESENTATION_REPRESENTATION (  '', ( #144 ), #173 ) ;
#143 = PRESENTATION_LAYER_ASSIGNMENT (  '', '', ( #144 ) ) ;
#144 = STYLED_ITEM ( 'NONE', ( #145 ), #41 ) ;
#145 = PRESENTATION_STYLE_ASSIGNMENT (( #146 ) ) ;
#146 = SURFACE_STYLE_USAGE ( .BOTH. , #147 ) ;
#147 = SURFACE_SIDE_STYLE ('',( #148 ) ) ;
#148 = SURFACE_STYLE_FILL_AREA ( #149 ) ;
#149 = FILL_AREA_STYLE ('',( #155 ) ) ;
#150 = COLOUR_RGB ( '',0.7960784313725489700, 0.8235294117647058400, 0.9372549019607843100 ) ;
#151 = DIRECTION ( 'NONE',  ( -0.0000000000000000000, 3.061515884555943100E-016, -1.000000000000000000 ) ) ;
#152 = VECTOR ( 'NONE', #151, 39.37007874015748100 ) ;
#153 = CARTESIAN_POINT ( 'NONE',  ( 0.0000000000000000000, 0.2500000000000005000, -0.04822834645669284200 ) ) ;
#154 = LINE ( 'NONE', #153, #152 ) ;
#155 = FILL_AREA_STYLE_COLOUR ( '', #150 ) ;
#156 = DIRECTION ( 'NONE',  ( 0.0000000000000000000, 1.000000000000000000, 3.199121209731304500E-016 ) ) ;
#157 = DIRECTION ( 'NONE',  ( 1.000000000000000000, 0.0000000000000000000, -0.0000000000000000000 ) ) ;
#158 = CARTESIAN_POINT ( 'NONE',  ( 0.0000000000000000000, 9.374988405541848500E-017, -0.8057086614173298900 ) ) ;
#159 = AXIS2_PLACEMENT_3D ( 'NONE', #158, #157, #156 ) ;
#160 = SPHERICAL_SURFACE ( 'NONE', #159, 0.8539370078740193800 ) ;
#161 =( LENGTH_UNIT ( ) NAMED_UNIT ( * ) SI_UNIT ( $, .METRE. ) );
#162 = MECHANICAL_DESIGN_GEOMETRIC_PRESENTATION_REPRESENTATION (  '', ( #164 ), #116 ) ;
#163 = PRESENTATION_LAYER_ASSIGNMENT (  '', '', ( #164 ) ) ;
#164 = STYLED_ITEM ( 'NONE', ( #165 ), #42 ) ;
#165 = PRESENTATION_STYLE_ASSIGNMENT (( #166 ) ) ;
#166 = SURFACE_STYLE_USAGE ( .BOTH. , #167 ) ;
#167 = SURFACE_SIDE_STYLE ('',( #168 ) ) ;
#168 = SURFACE_STYLE_FILL_AREA ( #169 ) ;
#169 = FILL_AREA_STYLE ('',( #170 ) ) ;
#170 = FILL_AREA_STYLE_COLOUR ( '', #171 ) ;
#171 = COLOUR_RGB ( '',1.000000000000000000, 1.000000000000000000, 1.000000000000000000 ) ;
#172 = FACE_OUTER_BOUND ( 'NONE', #17, .T. ) ;
#173 =( GEOMETRIC_REPRESENTATION_CONTEXT ( 3 ) GLOBAL_UNCERTAINTY_ASSIGNED_CONTEXT ( ( #174 ) ) GLOBAL_UNIT_ASSIGNED_CONTEXT ( ( #138, #176, #175 ) ) REPRESENTATION_CONTEXT ( 'NONE', 'WORKASPACE' ) );
#174 = UNCERTAINTY_MEASURE_WITH_UNIT (LENGTH_MEASURE( 1.000000000000000100E-005 ), #138, 'distance_accuracy_value', 'NONE');
#175 =( NAMED_UNIT ( * ) SI_UNIT ( $, .STERADIAN. ) SOLID_ANGLE_UNIT ( ) );
#176 =( NAMED_UNIT ( * ) PLANE_ANGLE_UNIT ( ) SI_UNIT ( $, .RADIAN. ) );
#177 = CARTESIAN_POINT ( 'NONE',  ( 0.0000000000000000000, 1.870658524736547600E-017, -0.04822834645669300100 ) ) ;
#178 = AXIS2_PLACEMENT_3D ( 'NONE', #177, #136, #135 ) ;
#179 = FACE_OUTER_BOUND ( 'NONE', #28, .T. ) ;
#180 = LENGTH_MEASURE_WITH_UNIT ( LENGTH_MEASURE( 0.02539999999999999900 ), #182 );
#181 = DIMENSIONAL_EXPONENTS ( 1.000000000000000000, 0.0000000000000000000, 0.0000000000000000000, 0.0000000000000000000, 0.0000000000000000000, 0.0000000000000000000, 0.0000000000000000000 ) ;
#182 =( LENGTH_UNIT ( ) NAMED_UNIT ( * ) SI_UNIT ( $, .METRE. ) );
#183 = MECHANICAL_DESIGN_GEOMETRIC_PRESENTATION_REPRESENTATION (  '', ( #185 ), #117 ) ;
#184 = PRESENTATION_LAYER_ASSIGNMENT (  '', '', ( #185 ) ) ;
#185 = STYLED_ITEM ( 'NONE', ( #186 ), #39 ) ;
#186 = PRESENTATION_STYLE_ASSIGNMENT (( #187 ) ) ;
#187 = SURFACE_STYLE_USAGE ( .BOTH. , #188 ) ;
#188 = SURFACE_SIDE_STYLE ('',( #189 ) ) ;
#189 = SURFACE_STYLE_FILL_AREA ( #190 ) ;
#190 = FILL_AREA_STYLE ('',( #191 ) ) ;
#191 = FILL_AREA_STYLE_COLOUR ( '', #192 ) ;
#192 = COLOUR_RGB ( '',1.000000000000000000, 1.000000000000000000, 1.000000000000000000 ) ;
#193 = FACE_OUTER_BOUND ( 'NONE', #21, .T. ) ;
#194 = DIRECTION ( 'NONE',  ( 0.0000000000000000000, 1.000000000000000000, 3.073328992872290500E-016 ) ) ;
#195 = DIRECTION ( 'NONE',  ( -0.0000000000000000000, 3.061515884555943100E-016, -1.000000000000000000 ) ) ;
#196 = CARTESIAN_POINT ( 'NONE',  ( 0.0000000000000000000, 1.870658524736545100E-017, -0.04822834645669292500 ) ) ;
#197 = AXIS2_PLACEMENT_3D ( 'NONE', #196, #195, #194 ) ;
#198 = CARTESIAN_POINT ( 'NONE',  ( 0.0000000000000000000, 0.2500000000000000000, -0.04822834645669292500 ) ) ;
#199 = CYLINDRICAL_SURFACE ( 'NONE', #197, 0.2500000000000005000 ) ;
#200 =( GEOMETRIC_REPRESENTATION_CONTEXT ( 3 ) GLOBAL_UNCERTAINTY_ASSIGNED_CONTEXT ( ( #201 ) ) GLOBAL_UNIT_ASSIGNED_CONTEXT ( ( #204, #203, #202 ) ) REPRESENTATION_CONTEXT ( 'NONE', 'WORKASPACE' ) );
#201 = UNCERTAINTY_MEASURE_WITH_UNIT (LENGTH_MEASURE( 1.000000000000000100E-005 ), #204, 'distance_accuracy_value', 'NONE');
#202 =( NAMED_UNIT ( * ) SI_UNIT ( $, .STERADIAN. ) SOLID_ANGLE_UNIT ( ) );
#203 =( NAMED_UNIT ( * ) PLANE_ANGLE_UNIT ( ) SI_UNIT ( $, .RADIAN. ) );
#204 =( CONVERSION_BASED_UNIT ( 'INCH', #205 ) LENGTH_UNIT ( ) NAMED_UNIT ( #206 ) );
#205 = LENGTH_MEASURE_WITH_UNIT ( LENGTH_MEASURE( 0.02539999999999999900 ), #207 );
#206 = DIMENSIONAL_EXPONENTS ( 1.000000000000000000, 0.0000000000000000000, 0.0000000000000000000, 0.0000000000000000000, 0.0000000000000000000, 0.0000000000000000000, 0.0000000000000000000 ) ;
#207 =( LENGTH_UNIT ( ) NAMED_UNIT ( * ) SI_UNIT ( $, .METRE. ) );
#208 = MECHANICAL_DESIGN_GEOMETRIC_PRESENTATION_REPRESENTATION (  '', ( #210 ), #200 ) ;
#209 = PRESENTATION_LAYER_ASSIGNMENT (  '', '', ( #210 ) ) ;
#210 = STYLED_ITEM ( 'NONE', ( #211 ), #34 ) ;
#211 = PRESENTATION_STYLE_ASSIGNMENT (( #212 ) ) ;
#212 = SURFACE_STYLE_USAGE ( .BOTH. , #213 ) ;
#213 = SURFACE_SIDE_STYLE ('',( #214 ) ) ;
#214 = SURFACE_STYLE_FILL_AREA ( #215 ) ;
#215 = FILL_AREA_STYLE ('',( #222 ) ) ;
#216 = COLOUR_RGB ( '',1.000000000000000000, 1.000000000000000000, 1.000000000000000000 ) ;
#217 = FACE_OUTER_BOUND ( 'NONE', #31, .T. ) ;
#218 = DIRECTION ( 'NONE',  ( 0.0000000000000000000, 1.000000000000000000, 3.073328992872284500E-016 ) ) ;
#219 = DIRECTION ( 'NONE',  ( -0.0000000000000000000, 3.061515884555943100E-016, -1.000000000000000000 ) ) ;
#220 = CARTESIAN_POINT ( 'NONE',  ( 0.0000000000000000000, 6.308351689746712100E-019, 0.01081348366927610500 ) ) ;
#221 = AXIS2_PLACEMENT_3D ( 'NONE', #220, #219, #218 ) ;
#222 = FILL_AREA_STYLE_COLOUR ( '', #216 ) ;
#223 = DIRECTION ( 'NONE',  ( 0.0000000000000000000, 1.000000000000000000, 3.199121209731304500E-016 ) ) ;
#224 = DIRECTION ( 'NONE',  ( 1.000000000000000000, 0.0000000000000000000, -0.0000000000000000000 ) ) ;
#225 = CARTESIAN_POINT ( 'NONE',  ( 0.0000000000000000000, 9.374988405541848500E-017, -0.8057086614173298900 ) ) ;
#226 = AXIS2_PLACEMENT_3D ( 'NONE', #225, #224, #223 ) ;
#227 = CIRCLE ( 'NONE', #221, 0.2500000000000009400 ) ;
#228 = SPHERICAL_SURFACE ( 'NONE', #226, 0.8539370078740193800 ) ;
#229 = DIRECTION ( 'NONE',  ( 0.0000000000000000000, 0.0000000000000000000, 1.000000000000000000 ) ) ;
#230 = DIRECTION ( 'NONE',  ( 1.000000000000000000, 0.0000000000000000000, 0.0000000000000000000 ) ) ;
#231 = AXIS2_PLACEMENT_3D ( 'NONE', #232, #229, #230 ) ;
#232 = CARTESIAN_POINT ( 'NONE',  ( 0.0000000000000000000, 0.0000000000000000000, 0.0000000000000000000 ) ) ;
#233 =( GEOMETRIC_REPRESENTATION_CONTEXT ( 3 ) GLOBAL_UNCERTAINTY_ASSIGNED_CONTEXT ( ( #234 ) ) GLOBAL_UNIT_ASSIGNED_CONTEXT ( ( #237, #236, #235 ) ) REPRESENTATION_CONTEXT ( 'NONE', 'WORKASPACE' ) );
#234 = UNCERTAINTY_MEASURE_WITH_UNIT (LENGTH_MEASURE( 1.000000000000000100E-005 ), #237, 'distance_accuracy_value', 'NONE');
#235 =( NAMED_UNIT ( * ) SI_UNIT ( $, .STERADIAN. ) SOLID_ANGLE_UNIT ( ) );
#236 =( NAMED_UNIT ( * ) PLANE_ANGLE_UNIT ( ) SI_UNIT ( $, .RADIAN. ) );
#237 =( CONVERSION_BASED_UNIT ( 'INCH', #238 ) LENGTH_UNIT ( ) NAMED_UNIT ( #239 ) );
#238 = LENGTH_MEASURE_WITH_UNIT ( LENGTH_MEASURE( 0.02539999999999999900 ), #240 );
#239 = DIMENSIONAL_EXPONENTS ( 1.000000000000000000, 0.0000000000000000000, 0.0000000000000000000, 0.0000000000000000000, 0.0000000000000000000, 0.0000000000000000000, 0.0000000000000000000 ) ;
#240 =( LENGTH_UNIT ( ) NAMED_UNIT ( * ) SI_UNIT ( $, .METRE. ) );
#241 = MECHANICAL_DESIGN_GEOMETRIC_PRESENTATION_REPRESENTATION (  '', ( #243 ), #233 ) ;
#242 = PRESENTATION_LAYER_ASSIGNMENT (  '', '', ( #243 ) ) ;
#243 = STYLED_ITEM ( 'NONE', ( #244 ), #252 ) ;
#244 = PRESENTATION_STYLE_ASSIGNMENT (( #245 ) ) ;
#245 = SURFACE_STYLE_USAGE ( .BOTH. , #246 ) ;
#246 = SURFACE_SIDE_STYLE ('',( #247 ) ) ;
#247 = SURFACE_STYLE_FILL_AREA ( #248 ) ;
#248 = FILL_AREA_STYLE ('',( #249 ) ) ;
#249 = FILL_AREA_STYLE_COLOUR ( '', #250 ) ;
#250 = COLOUR_RGB ( '',0.7960784313725489700, 0.8235294117647058400, 0.9372549019607843100 ) ;
#251 = APPLICATION_CONTEXT ( 'automotive_design' ) ;
#252 = ADVANCED_BREP_SHAPE_REPRESENTATION ( '3325-E0W', ( #41, #231 ), #253 ) ;
#253 =( GEOMETRIC_REPRESENTATION_CONTEXT ( 3 ) GLOBAL_UNCERTAINTY_ASSIGNED_CONTEXT ( ( #254 ) ) GLOBAL_UNIT_ASSIGNED_CONTEXT ( ( #46, #71, #108 ) ) REPRESENTATION_CONTEXT ( 'NONE', 'WORKASPACE' ) );
#254 = UNCERTAINTY_MEASURE_WITH_UNIT (LENGTH_MEASURE( 1.000000000000000100E-005 ), #46, 'distance_accuracy_value', 'NONE');
#255 = PRODUCT_DEFINITION_SHAPE ( 'NONE', 'NONE',  #258 ) ;
#256 = PRODUCT_RELATED_PRODUCT_CATEGORY ( 'part', '', ( #263 ) ) ;
#257 = PRODUCT_DEFINITION_FORMATION_WITH_SPECIFIED_SOURCE ( 'ANY', '', #263, .NOT_KNOWN. ) ;
#258 = PRODUCT_DEFINITION ( 'UNKNOWN', '', #257, #259 ) ;
#259 = PRODUCT_DEFINITION_CONTEXT ( 'detailed design', #261, 'design' ) ;
#260 = APPLICATION_PROTOCOL_DEFINITION ( 'draft international standard', 'automotive_design', 1998, #261 ) ;
#261 = APPLICATION_CONTEXT ( 'automotive_design' ) ;
#262 = SHAPE_DEFINITION_REPRESENTATION ( #255, #252 ) ;
#263 = PRODUCT ( '3325-E0W', '3325-E0W', '', ( #264 ) ) ;
#264 = PRODUCT_CONTEXT ( 'NONE', #251, 'mechanical' ) ;
#265 = APPLICATION_PROTOCOL_DEFINITION ( 'draft international standard', 'automotive_design', 1998, #251 ) ;
ENDSEC;
END-ISO-10303-21;
