ISO-10303-21;
HEADER;
FILE_DESCRIPTION (( 'STEP AP203' ),
    '1' );
FILE_NAME ('TTN047574-E0W.STEP',
    '2019-05-30T15:03:28',
    ( '' ),
    ( '' ),
    'SwSTEP 2.0',
    'SolidWorks 2018',
    '' );
FILE_SCHEMA (( 'CONFIG_CONTROL_DESIGN' ));
ENDSEC;

DATA;
#1 = ADVANCED_FACE ( 'NONE', ( #37 ), #140, .T. ) ;
#2 = DIRECTION ( 'NONE',  ( 0.0000000000000000000, 1.000000000000000000, -1.331775896911329379E-15 ) ) ;
#3 =( NAMED_UNIT ( * ) SI_UNIT ( $, .STERADIAN. ) SOLID_ANGLE_UNIT ( ) );
#4 = DATE_TIME_ROLE ( 'creation_date' ) ;
#5 = ORIENTED_EDGE ( 'NONE', *, *, #67, .T. ) ;
#6 = DIRECTION ( 'NONE',  ( -1.224646799147353207E-16, 1.000000000000000000, 0.0000000000000000000 ) ) ;
#7 = FACE_OUTER_BOUND ( 'NONE', #204, .T. ) ;
#8 = DIRECTION ( 'NONE',  ( 0.0000000000000000000, -1.000000000000000000, 1.331775896911328985E-15 ) ) ;
#9 = APPLICATION_CONTEXT ( 'configuration controlled 3d designs of mechanical parts and assemblies' ) ;
#10 = VERTEX_POINT ( 'NONE', #30 ) ;
#11 = APPROVAL_ROLE ( '' ) ;
#12 = LINE ( 'NONE', #300, #276 ) ;
#13 = CYLINDRICAL_SURFACE ( 'NONE', #224, 6.349999999999996980 ) ;
#14 = ORIENTED_EDGE ( 'NONE', *, *, #105, .F. ) ;
#15 = CC_DESIGN_PERSON_AND_ORGANIZATION_ASSIGNMENT ( #62, #175, ( #242 ) ) ;
#16 = ORIENTED_EDGE ( 'NONE', *, *, #93, .T. ) ;
#17 = FACE_OUTER_BOUND ( 'NONE', #152, .T. ) ;
#18 = MANIFOLD_SOLID_BREP ( 'TTN047575-1-solid1', #294 ) ;
#19 = DIRECTION ( 'NONE',  ( 0.0000000000000000000, 1.000000000000000000, -1.339827074941437190E-15 ) ) ;
#20 = CIRCLE ( 'NONE', #41, 6.349999999999996980 ) ;
#21 = EDGE_CURVE ( 'NONE', #208, #167, #267, .T. ) ;
#22 = DIRECTION ( 'NONE',  ( -0.0000000000000000000, -1.335063993641108318E-15, -1.000000000000000000 ) ) ;
#23 = CARTESIAN_POINT ( 'NONE',  ( 0.0000000000000000000, 8.673617379884170564E-16, -1.489999999999991775 ) ) ;
#24 = PERSON_AND_ORGANIZATION ( #35, #117 ) ;
#25 = DIRECTION ( 'NONE',  ( -0.0000000000000000000, -1.335063993641108318E-15, -1.000000000000000000 ) ) ;
#26 = CARTESIAN_POINT ( 'NONE',  ( 7.776507174585690191E-16, 6.349999999999997868, -1.289999999999999813 ) ) ;
#27 = ORIENTED_EDGE ( 'NONE', *, *, #64, .F. ) ;
#28 = CARTESIAN_POINT ( 'NONE',  ( 0.0000000000000000000, 6.049555387882544168E-16, -1.489999999999999991 ) ) ;
#29 = APPROVAL_STATUS ( 'not_yet_approved' ) ;
#30 = CARTESIAN_POINT ( 'NONE',  ( 0.0000000000000000000, -6.149999999999996803, -1.489999999999983560 ) ) ;
#31 = VECTOR ( 'NONE', #262, 999.9999999999998863 ) ;
#32 = CARTESIAN_POINT ( 'NONE',  ( 0.0000000000000000000, 6.349999999999997868, -1.289999999999999813 ) ) ;
#33 = CARTESIAN_POINT ( 'NONE',  ( 0.0000000000000000000, 1.134374536716639134E-15, -1.289999999999991376 ) ) ;
#34 = CONICAL_SURFACE ( 'NONE', #270, 6.349999999999996980, 0.7853981633974466137 ) ;
#35 = PERSON ( 'UNSPECIFIED', 'UNSPECIFIED', 'UNSPECIFIED', ('UNSPECIFIED'), ('UNSPECIFIED'), ('UNSPECIFIED') ) ;
#36 = DIRECTION ( 'NONE',  ( 0.0000000000000000000, 1.000000000000000000, 3.073328992872297353E-16 ) ) ;
#37 = FACE_OUTER_BOUND ( 'NONE', #55, .T. ) ;
#38 = APPROVAL ( #124, 'UNSPECIFIED' ) ;
#39 = ORIENTED_EDGE ( 'NONE', *, *, #159, .F. ) ;
#40 = VECTOR ( 'NONE', #207, 1000.000000000000000 ) ;
#41 = AXIS2_PLACEMENT_3D ( 'NONE', #281, #210, #166 ) ;
#42 = ORIENTED_EDGE ( 'NONE', *, *, #138, .T. ) ;
#43 = CC_DESIGN_PERSON_AND_ORGANIZATION_ASSIGNMENT ( #202, #291, ( #295 ) ) ;
#44 = CIRCLE ( 'NONE', #182, 6.349999999999994316 ) ;
#45 = ORIENTED_EDGE ( 'NONE', *, *, #159, .T. ) ;
#46 = CARTESIAN_POINT ( 'NONE',  ( 0.0000000000000000000, 8.673617379884170564E-16, -1.489999999999991775 ) ) ;
#47 = APPROVAL ( #29, 'UNSPECIFIED' ) ;
#48 = CARTESIAN_POINT ( 'NONE',  ( 7.654042494670951690E-16, -6.149999999999992362, 0.5711108043269135237 ) ) ;
#49 = FACE_OUTER_BOUND ( 'NONE', #273, .T. ) ;
#50 = EDGE_CURVE ( 'NONE', #167, #208, #20, .T. ) ;
#51 = ADVANCED_FACE ( 'NONE', ( #255 ), #298, .T. ) ;
#52 = DIRECTION ( 'NONE',  ( 0.0000000000000000000, 1.000000000000000000, -1.339827074941436795E-15 ) ) ;
#53 = COORDINATED_UNIVERSAL_TIME_OFFSET ( 5, 0, .BEHIND. ) ;
#54 = CARTESIAN_POINT ( 'NONE',  ( 0.0000000000000000000, 1.134374536716639134E-15, -1.289999999999991376 ) ) ;
#55 = EDGE_LOOP ( 'NONE', ( #259, #109, #16, #83 ) ) ;
#56 = PRODUCT_DEFINITION_FORMATION_WITH_SPECIFIED_SOURCE ( 'ANY', '', #242, .NOT_KNOWN. ) ;
#57 = AXIS2_PLACEMENT_3D ( 'NONE', #23, #25, #52 ) ;
#58 = DIRECTION ( 'NONE',  ( 0.0000000000000000000, 0.0000000000000000000, 1.000000000000000000 ) ) ;
#59 = DATE_TIME_ROLE ( 'classification_date' ) ;
#60 = PERSON_AND_ORGANIZATION_ROLE ( 'design_supplier' ) ;
#61 = APPROVAL_PERSON_ORGANIZATION ( #194, #157, #11 ) ;
#62 = PERSON_AND_ORGANIZATION ( #35, #117 ) ;
#63 = VERTEX_POINT ( 'NONE', #254 ) ;
#64 = EDGE_CURVE ( 'NONE', #296, #63, #127, .T. ) ;
#65 = CIRCLE ( 'NONE', #256, 6.149999999999995914 ) ;
#66 = FACE_OUTER_BOUND ( 'NONE', #91, .T. ) ;
#67 = EDGE_CURVE ( 'NONE', #71, #269, #200, .T. ) ;
#68 = ORIENTED_EDGE ( 'NONE', *, *, #21, .T. ) ;
#69 = CIRCLE ( 'NONE', #248, 6.349999999999994316 ) ;
#70 = DIRECTION ( 'NONE',  ( -0.0000000000000000000, -1.335063993641108318E-15, -1.000000000000000000 ) ) ;
#71 = VERTEX_POINT ( 'NONE', #48 ) ;
#72 = CARTESIAN_POINT ( 'NONE',  ( 0.0000000000000000000, 3.619076559749921092E-15, 0.5711108043269053081 ) ) ;
#73 = DIRECTION ( 'NONE',  ( 1.000000000000000000, 0.0000000000000000000, -0.0000000000000000000 ) ) ;
#74 = DATE_AND_TIME ( #203, #130 ) ;
#75 = ADVANCED_FACE ( 'NONE', ( #17 ), #149, .T. ) ;
#76 = CARTESIAN_POINT ( 'NONE',  ( 0.0000000000000000000, 0.0000000000000000000, 0.0000000000000000000 ) ) ;
#77 = ORIENTED_EDGE ( 'NONE', *, *, #21, .F. ) ;
#78 = CARTESIAN_POINT ( 'NONE',  ( 0.0000000000000000000, 2.269195573632860942E-15, -19.55000000000017835 ) ) ;
#79 = EDGE_CURVE ( 'NONE', #63, #208, #241, .T. ) ;
#80 = CARTESIAN_POINT ( 'NONE',  ( 7.654042494670953662E-16, 6.149999999999998579, -1.489999999999999991 ) ) ;
#81 = VECTOR ( 'NONE', #141, 1000.000000000000000 ) ;
#82 = DIRECTION ( 'NONE',  ( 0.0000000000000000000, -1.000000000000000000, 1.331775896911328985E-15 ) ) ;
#83 = ORIENTED_EDGE ( 'NONE', *, *, #50, .T. ) ;
#84 = DIRECTION ( 'NONE',  ( 0.0000000000000000000, 1.000000000000000000, 3.061515884555943146E-16 ) ) ;
#85 = DATE_AND_TIME ( #142, #107 ) ;
#86 = ORIENTED_EDGE ( 'NONE', *, *, #146, .F. ) ;
#87 = CONICAL_SURFACE ( 'NONE', #229, 6.149999999999995914, 0.7853981633974461696 ) ;
#88 = PERSON_AND_ORGANIZATION ( #35, #117 ) ;
#89 = AXIS2_PLACEMENT_3D ( 'NONE', #78, #150, #173 ) ;
#90 = PERSON_AND_ORGANIZATION ( #35, #117 ) ;
#91 = EDGE_LOOP ( 'NONE', ( #132, #247, #68, #222 ) ) ;
#92 = CIRCLE ( 'NONE', #196, 6.149999999999995914 ) ;
#93 = EDGE_CURVE ( 'NONE', #10, #167, #137, .T. ) ;
#94 = EDGE_LOOP ( 'NONE', ( #228, #45, #249, #86 ) ) ;
#95 = DIRECTION ( 'NONE',  ( -0.0000000000000000000, 3.061515884555943146E-16, -1.000000000000000000 ) ) ;
#96 = CARTESIAN_POINT ( 'NONE',  ( 0.0000000000000000000, 3.352063761021699902E-15, 0.3711108043269056855 ) ) ;
#97 = ORIENTED_EDGE ( 'NONE', *, *, #113, .F. ) ;
#98 = ADVANCED_FACE ( 'NONE', ( #271 ), #108, .T. ) ;
#99 = DIRECTION ( 'NONE',  ( 0.0000000000000000000, 0.7071067811865450192, -0.7071067811865500152 ) ) ;
#100 = DIRECTION ( 'NONE',  ( 1.000000000000000000, 0.0000000000000000000, 0.0000000000000000000 ) ) ;
#101 = SHAPE_DEFINITION_REPRESENTATION ( #164, #297 ) ;
#102 = CC_DESIGN_SECURITY_CLASSIFICATION ( #295, ( #56 ) ) ;
#103 = CARTESIAN_POINT ( 'NONE',  ( 0.0000000000000000000, 2.269195573632860942E-15, -19.55000000000017835 ) ) ;
#104 = DIRECTION ( 'NONE',  ( 0.0000000000000000000, 1.000000000000000000, -1.339827074941436795E-15 ) ) ;
#105 = EDGE_CURVE ( 'NONE', #269, #167, #12, .T. ) ;
#106 = PLANE ( 'NONE',  #244 ) ;
#107 = LOCAL_TIME ( 11, 3, 28.00000000000000000, #53 ) ;
#108 = SPHERICAL_SURFACE ( 'NONE', #217, 21.04000000000018389 ) ;
#109 = ORIENTED_EDGE ( 'NONE', *, *, #138, .F. ) ;
#110 = EDGE_CURVE ( 'NONE', #63, #269, #44, .T. ) ;
#111 = CIRCLE ( 'NONE', #209, 21.04000000000018389 ) ;
#112 = APPROVAL_DATE_TIME ( #225, #38 ) ;
#113 = EDGE_CURVE ( 'NONE', #296, #71, #65, .T. ) ;
#114 = ORIENTED_EDGE ( 'NONE', *, *, #105, .T. ) ;
#115 = DIRECTION ( 'NONE',  ( -0.0000000000000000000, -1.335063993641108318E-15, -1.000000000000000000 ) ) ;
#116 = CARTESIAN_POINT ( 'NONE',  ( 0.0000000000000000000, 6.349999999999997868, -1.489999999999997993 ) ) ;
#117 = ORGANIZATION ( 'UNSPECIFIED', 'UNSPECIFIED', '' ) ;
#118 = DIRECTION ( 'NONE',  ( 0.0000000000000000000, 1.000000000000000000, -1.339827074941437190E-15 ) ) ;
#119 = CARTESIAN_POINT ( 'NONE',  ( 0.0000000000000000000, 3.352063761021699902E-15, 0.3711108043269056855 ) ) ;
#120 = CARTESIAN_POINT ( 'NONE',  ( 0.0000000000000000000, -2.883905414769872308E-15, 1.490000000000005098 ) ) ;
#121 = APPROVAL_PERSON_ORGANIZATION ( #246, #38, #285 ) ;
#122 = MECHANICAL_CONTEXT ( 'NONE', #9, 'mechanical' ) ;
#123 = ORIENTED_EDGE ( 'NONE', *, *, #110, .F. ) ;
#124 = APPROVAL_STATUS ( 'not_yet_approved' ) ;
#125 = CARTESIAN_POINT ( 'NONE',  ( 0.0000000000000000000, 3.619076559749921092E-15, 0.5711108043269053081 ) ) ;
#126 = DIRECTION ( 'NONE',  ( 0.0000000000000000000, 1.000000000000000000, -1.331775896911328985E-15 ) ) ;
#127 = LINE ( 'NONE', #234, #170 ) ;
#128 = CARTESIAN_POINT ( 'NONE',  ( 7.776507174585686247E-16, -6.349999999999990763, 0.3711108043269141232 ) ) ;
#129 = ORIENTED_EDGE ( 'NONE', *, *, #113, .T. ) ;
#130 = LOCAL_TIME ( 11, 3, 28.00000000000000000, #221 ) ;
#131 = COORDINATED_UNIVERSAL_TIME_OFFSET ( 5, 0, .BEHIND. ) ;
#132 = ORIENTED_EDGE ( 'NONE', *, *, #154, .F. ) ;
#133 = CC_DESIGN_PERSON_AND_ORGANIZATION_ASSIGNMENT ( #169, #147, ( #292 ) ) ;
#134 = FACE_OUTER_BOUND ( 'NONE', #156, .T. ) ;
#135 = COORDINATED_UNIVERSAL_TIME_OFFSET ( 5, 0, .BEHIND. ) ;
#136 = EDGE_LOOP ( 'NONE', ( #174, #190, #39 ) ) ;
#137 = LINE ( 'NONE', #230, #81 ) ;
#138 = EDGE_CURVE ( 'NONE', #10, #279, #163, .T. ) ;
#139 = DIRECTION ( 'NONE',  ( 0.0000000000000000000, 1.000000000000000000, 3.297953376381733815E-16 ) ) ;
#140 = CONICAL_SURFACE ( 'NONE', #236, 6.349999999999996980, 0.7853981633974466137 ) ;
#141 = DIRECTION ( 'NONE',  ( 0.0000000000000000000, -0.7071067811865453523, 0.7071067811865496822 ) ) ;
#142 = CALENDAR_DATE ( 2019, 30, 5 ) ;
#143 = ADVANCED_FACE ( 'NONE', ( #253 ), #87, .T. ) ;
#144 = CC_DESIGN_PERSON_AND_ORGANIZATION_ASSIGNMENT ( #24, #288, ( #56 ) ) ;
#145 = ORIENTED_EDGE ( 'NONE', *, *, #201, .F. ) ;
#146 = EDGE_CURVE ( 'NONE', #269, #63, #69, .T. ) ;
#147 = PERSON_AND_ORGANIZATION_ROLE ( 'creator' ) ;
#148 = CARTESIAN_POINT ( 'NONE',  ( 0.0000000000000000000, 6.049555387882547127E-16, -1.490000000000000879 ) ) ;
#149 = CYLINDRICAL_SURFACE ( 'NONE', #191, 6.349999999999996980 ) ;
#150 = DIRECTION ( 'NONE',  ( 1.000000000000000000, 0.0000000000000000000, -0.0000000000000000000 ) ) ;
#151 = SPHERICAL_SURFACE ( 'NONE', #89, 21.04000000000018389 ) ;
#152 = EDGE_LOOP ( 'NONE', ( #238, #114, #77, #220 ) ) ;
#153 =( LENGTH_UNIT ( ) NAMED_UNIT ( * ) SI_UNIT ( .MILLI., .METRE. ) );
#154 = EDGE_CURVE ( 'NONE', #279, #10, #216, .T. ) ;
#155 = APPROVAL_DATE_TIME ( #211, #47 ) ;
#156 = EDGE_LOOP ( 'NONE', ( #14, #161, #275, #165 ) ) ;
#157 = APPROVAL ( #245, 'UNSPECIFIED' ) ;
#158 = VECTOR ( 'NONE', #168, 1000.000000000000000 ) ;
#159 = EDGE_CURVE ( 'NONE', #71, #296, #92, .T. ) ;
#160 = CC_DESIGN_PERSON_AND_ORGANIZATION_ASSIGNMENT ( #88, #60, ( #56 ) ) ;
#161 = ORIENTED_EDGE ( 'NONE', *, *, #146, .T. ) ;
#162 = AXIS2_PLACEMENT_3D ( 'NONE', #33, #264, #126 ) ;
#163 = CIRCLE ( 'NONE', #57, 6.149999999999997691 ) ;
#164 = PRODUCT_DEFINITION_SHAPE ( 'NONE', 'NONE',  #292 ) ;
#165 = ORIENTED_EDGE ( 'NONE', *, *, #50, .F. ) ;
#166 = DIRECTION ( 'NONE',  ( 0.0000000000000000000, 1.000000000000000000, -1.331775896911328985E-15 ) ) ;
#167 = VERTEX_POINT ( 'NONE', #283 ) ;
#168 = DIRECTION ( 'NONE',  ( 8.659560562354914369E-17, -0.7071067811865470176, -0.7071067811865480168 ) ) ;
#169 = PERSON_AND_ORGANIZATION ( #35, #117 ) ;
#170 = VECTOR ( 'NONE', #99, 1000.000000000000000 ) ;
#171 = CARTESIAN_POINT ( 'NONE',  ( 0.0000000000000000000, 2.269195573632860942E-15, -19.55000000000017835 ) ) ;
#172 = DIRECTION ( 'NONE',  ( 0.0000000000000000000, 1.335063993641108318E-15, 1.000000000000000000 ) ) ;
#173 = DIRECTION ( 'NONE',  ( 0.0000000000000000000, 1.000000000000000000, 3.297953376381733815E-16 ) ) ;
#174 = ORIENTED_EDGE ( 'NONE', *, *, #179, .F. ) ;
#175 = PERSON_AND_ORGANIZATION_ROLE ( 'design_owner' ) ;
#176 = LOCAL_TIME ( 11, 3, 28.00000000000000000, #131 ) ;
#177 = EDGE_CURVE ( 'NONE', #279, #208, #286, .T. ) ;
#178 = CC_DESIGN_APPROVAL ( #38, ( #292 ) ) ;
#179 = EDGE_CURVE ( 'NONE', #251, #71, #226, .T. ) ;
#180 = APPROVAL_DATE_TIME ( #74, #157 ) ;
#181 = CALENDAR_DATE ( 2019, 30, 5 ) ;
#182 = AXIS2_PLACEMENT_3D ( 'NONE', #96, #115, #188 ) ;
#183 = CARTESIAN_POINT ( 'NONE',  ( 7.531577814756217134E-16, -6.149999999999992362, 0.5711108043269135237 ) ) ;
#184 = EDGE_LOOP ( 'NONE', ( #129, #5, #123, #27 ) ) ;
#185 = DIRECTION ( 'NONE',  ( 0.0000000000000000000, 1.000000000000000000, -1.339827074941437190E-15 ) ) ;
#186 = CARTESIAN_POINT ( 'NONE',  ( 0.0000000000000000000, 3.619076559749921092E-15, 0.5711108043269053081 ) ) ;
#187 = CC_DESIGN_DATE_AND_TIME_ASSIGNMENT ( #85, #4, ( #292 ) ) ;
#188 = DIRECTION ( 'NONE',  ( 0.0000000000000000000, 1.000000000000000000, -1.331775896911329379E-15 ) ) ;
#189 = DIRECTION ( 'NONE',  ( -0.0000000000000000000, -1.335063993641108318E-15, -1.000000000000000000 ) ) ;
#190 = ORIENTED_EDGE ( 'NONE', *, *, #201, .T. ) ;
#191 = AXIS2_PLACEMENT_3D ( 'NONE', #232, #280, #278 ) ;
#192 = APPROVAL_ROLE ( '' ) ;
#193 = ADVANCED_FACE ( 'NONE', ( #7 ), #151, .T. ) ;
#194 = PERSON_AND_ORGANIZATION ( #35, #117 ) ;
#195 = DIRECTION ( 'NONE',  ( 0.0000000000000000000, 1.000000000000000000, -1.339827074941437190E-15 ) ) ;
#196 = AXIS2_PLACEMENT_3D ( 'NONE', #125, #189, #195 ) ;
#197 = LOCAL_TIME ( 11, 3, 28.00000000000000000, #268 ) ;
#198 = SECURITY_CLASSIFICATION_LEVEL ( 'unclassified' ) ;
#199 = LOCAL_TIME ( 11, 3, 28.00000000000000000, #135 ) ;
#200 = LINE ( 'NONE', #183, #158 ) ;
#201 = EDGE_CURVE ( 'NONE', #251, #296, #111, .T. ) ;
#202 = PERSON_AND_ORGANIZATION ( #35, #117 ) ;
#203 = CALENDAR_DATE ( 2019, 30, 5 ) ;
#204 = EDGE_LOOP ( 'NONE', ( #145, #289, #97 ) ) ;
#205 = AXIS2_PLACEMENT_3D ( 'NONE', #46, #266, #104 ) ;
#206 = DATE_AND_TIME ( #181, #199 ) ;
#207 = DIRECTION ( 'NONE',  ( -0.0000000000000000000, 3.061515884555943146E-16, -1.000000000000000000 ) ) ;
#208 = VERTEX_POINT ( 'NONE', #32 ) ;
#209 = AXIS2_PLACEMENT_3D ( 'NONE', #171, #243, #58 ) ;
#210 = DIRECTION ( 'NONE',  ( -0.0000000000000000000, -1.335063993641108318E-15, -1.000000000000000000 ) ) ;
#211 = DATE_AND_TIME ( #250, #197 ) ;
#212 = ADVANCED_FACE ( 'NONE', ( #49 ), #106, .T. ) ;
#213 = ORIENTED_EDGE ( 'NONE', *, *, #154, .T. ) ;
#214 = APPLICATION_CONTEXT ( 'configuration controlled 3d designs of mechanical parts and assemblies' ) ;
#215 = DIRECTION ( 'NONE',  ( -0.0000000000000000000, 3.061515884555943146E-16, -1.000000000000000000 ) ) ;
#216 = CIRCLE ( 'NONE', #205, 6.149999999999997691 ) ;
#217 = AXIS2_PLACEMENT_3D ( 'NONE', #301, #73, #139 ) ;
#218 = DIRECTION ( 'NONE',  ( 0.0000000000000000000, 1.335063993641108318E-15, 1.000000000000000000 ) ) ;
#219 = APPLICATION_PROTOCOL_DEFINITION ( 'international standard', 'config_control_design', 1994, #9 ) ;
#220 = ORIENTED_EDGE ( 'NONE', *, *, #79, .F. ) ;
#221 = COORDINATED_UNIVERSAL_TIME_OFFSET ( 5, 0, .BEHIND. ) ;
#222 = ORIENTED_EDGE ( 'NONE', *, *, #93, .F. ) ;
#223 = DESIGN_CONTEXT ( 'detailed design', #214, 'design' ) ;
#224 = AXIS2_PLACEMENT_3D ( 'NONE', #28, #239, #36 ) ;
#225 = DATE_AND_TIME ( #293, #176 ) ;
#226 = CIRCLE ( 'NONE', #252, 21.04000000000018389 ) ;
#227 = PRODUCT_RELATED_PRODUCT_CATEGORY ( 'detail', '', ( #242 ) ) ;
#228 = ORIENTED_EDGE ( 'NONE', *, *, #67, .F. ) ;
#229 = AXIS2_PLACEMENT_3D ( 'NONE', #186, #70, #185 ) ;
#230 = CARTESIAN_POINT ( 'NONE',  ( 0.0000000000000000000, -6.349999999999996092, -1.289999999999982938 ) ) ;
#231 = DIRECTION ( 'NONE',  ( -0.0000000000000000000, -1.335063993641108318E-15, -1.000000000000000000 ) ) ;
#232 = CARTESIAN_POINT ( 'NONE',  ( 0.0000000000000000000, 6.049555387882544168E-16, -1.489999999999999991 ) ) ;
#233 = ADVANCED_FACE ( 'NONE', ( #134 ), #13, .T. ) ;
#234 = CARTESIAN_POINT ( 'NONE',  ( 0.0000000000000000000, 6.149999999999999467, 0.5711108043268970924 ) ) ;
#235 = DIRECTION ( 'NONE',  ( 0.0000000000000000000, 0.0000000000000000000, 1.000000000000000000 ) ) ;
#236 = AXIS2_PLACEMENT_3D ( 'NONE', #54, #172, #8 ) ;
#237 =( NAMED_UNIT ( * ) PLANE_ANGLE_UNIT ( ) SI_UNIT ( $, .RADIAN. ) );
#238 = ORIENTED_EDGE ( 'NONE', *, *, #110, .T. ) ;
#239 = DIRECTION ( 'NONE',  ( -0.0000000000000000000, 3.061515884555943146E-16, -1.000000000000000000 ) ) ;
#240 = CARTESIAN_POINT ( 'NONE',  ( 0.0000000000000000000, 6.149999999999999467, 0.5711108043268970924 ) ) ;
#241 = LINE ( 'NONE', #116, #40 ) ;
#242 = PRODUCT ( 'TTN047574-E0W', 'TTN047574-E0W', '', ( #122 ) ) ;
#243 = DIRECTION ( 'NONE',  ( -1.000000000000000000, 0.0000000000000000000, 0.0000000000000000000 ) ) ;
#244 = AXIS2_PLACEMENT_3D ( 'NONE', #148, #215, #84 ) ;
#245 = APPROVAL_STATUS ( 'not_yet_approved' ) ;
#246 = PERSON_AND_ORGANIZATION ( #35, #117 ) ;
#247 = ORIENTED_EDGE ( 'NONE', *, *, #177, .T. ) ;
#248 = AXIS2_PLACEMENT_3D ( 'NONE', #119, #284, #2 ) ;
#249 = ORIENTED_EDGE ( 'NONE', *, *, #64, .T. ) ;
#250 = CALENDAR_DATE ( 2019, 30, 5 ) ;
#251 = VERTEX_POINT ( 'NONE', #120 ) ;
#252 = AXIS2_PLACEMENT_3D ( 'NONE', #103, #290, #6 ) ;
#253 = FACE_OUTER_BOUND ( 'NONE', #94, .T. ) ;
#254 = CARTESIAN_POINT ( 'NONE',  ( 0.0000000000000000000, 6.349999999999997868, 0.3711108043268971923 ) ) ;
#255 = FACE_OUTER_BOUND ( 'NONE', #184, .T. ) ;
#256 = AXIS2_PLACEMENT_3D ( 'NONE', #72, #231, #118 ) ;
#257 = CARTESIAN_POINT ( 'NONE',  ( 0.0000000000000000000, 3.619076559749921092E-15, 0.5711108043269053081 ) ) ;
#258 = APPROVAL_PERSON_ORGANIZATION ( #90, #47, #192 ) ;
#259 = ORIENTED_EDGE ( 'NONE', *, *, #177, .F. ) ;
#260 = APPLICATION_PROTOCOL_DEFINITION ( 'international standard', 'config_control_design', 1994, #214 ) ;
#261 = CC_DESIGN_DATE_AND_TIME_ASSIGNMENT ( #206, #59, ( #295 ) ) ;
#262 = DIRECTION ( 'NONE',  ( 8.659560562354919300E-17, 0.7071067811865473507, 0.7071067811865477948 ) ) ;
#263 = CARTESIAN_POINT ( 'NONE',  ( 0.0000000000000000000, 1.134374536716639134E-15, -1.289999999999991376 ) ) ;
#264 = DIRECTION ( 'NONE',  ( -0.0000000000000000000, -1.335063993641108318E-15, -1.000000000000000000 ) ) ;
#265 =( GEOMETRIC_REPRESENTATION_CONTEXT ( 3 ) GLOBAL_UNCERTAINTY_ASSIGNED_CONTEXT ( ( #272 ) ) GLOBAL_UNIT_ASSIGNED_CONTEXT ( ( #153, #237, #3 ) ) REPRESENTATION_CONTEXT ( 'NONE', 'WORKASPACE' ) );
#266 = DIRECTION ( 'NONE',  ( -0.0000000000000000000, -1.335063993641108318E-15, -1.000000000000000000 ) ) ;
#267 = CIRCLE ( 'NONE', #162, 6.349999999999996980 ) ;
#268 = COORDINATED_UNIVERSAL_TIME_OFFSET ( 5, 0, .BEHIND. ) ;
#269 = VERTEX_POINT ( 'NONE', #128 ) ;
#270 = AXIS2_PLACEMENT_3D ( 'NONE', #263, #218, #82 ) ;
#271 = FACE_OUTER_BOUND ( 'NONE', #136, .T. ) ;
#272 = UNCERTAINTY_MEASURE_WITH_UNIT (LENGTH_MEASURE( 1.000000000000000082E-05 ), #153, 'distance_accuracy_value', 'NONE');
#273 = EDGE_LOOP ( 'NONE', ( #42, #213 ) ) ;
#274 = AXIS2_PLACEMENT_3D ( 'NONE', #257, #22, #19 ) ;
#275 = ORIENTED_EDGE ( 'NONE', *, *, #79, .T. ) ;
#276 = VECTOR ( 'NONE', #95, 1000.000000000000000 ) ;
#277 = CC_DESIGN_APPROVAL ( #157, ( #295 ) ) ;
#278 = DIRECTION ( 'NONE',  ( 0.0000000000000000000, 1.000000000000000000, 3.073328992872297353E-16 ) ) ;
#279 = VERTEX_POINT ( 'NONE', #80 ) ;
#280 = DIRECTION ( 'NONE',  ( -0.0000000000000000000, 3.061515884555943146E-16, -1.000000000000000000 ) ) ;
#281 = CARTESIAN_POINT ( 'NONE',  ( 0.0000000000000000000, 1.134374536716639134E-15, -1.289999999999991376 ) ) ;
#282 = ADVANCED_FACE ( 'NONE', ( #66 ), #34, .T. ) ;
#283 = CARTESIAN_POINT ( 'NONE',  ( 7.776507174585690191E-16, -6.349999999999996092, -1.289999999999982938 ) ) ;
#284 = DIRECTION ( 'NONE',  ( -0.0000000000000000000, -1.335063993641108318E-15, -1.000000000000000000 ) ) ;
#285 = APPROVAL_ROLE ( '' ) ;
#286 = LINE ( 'NONE', #26, #31 ) ;
#287 = AXIS2_PLACEMENT_3D ( 'NONE', #76, #235, #100 ) ;
#288 = PERSON_AND_ORGANIZATION_ROLE ( 'creator' ) ;
#289 = ORIENTED_EDGE ( 'NONE', *, *, #179, .T. ) ;
#290 = DIRECTION ( 'NONE',  ( 1.000000000000000000, 1.224646799147353207E-16, 3.749275628560213616E-32 ) ) ;
#291 = PERSON_AND_ORGANIZATION_ROLE ( 'classification_officer' ) ;
#292 = PRODUCT_DEFINITION ( 'UNKNOWN', '', #56, #223 ) ;
#293 = CALENDAR_DATE ( 2019, 30, 5 ) ;
#294 = CLOSED_SHELL ( 'NONE', ( #193, #51, #282, #75, #233, #1, #212, #143, #98 ) ) ;
#295 = SECURITY_CLASSIFICATION ( '', '', #198 ) ;
#296 = VERTEX_POINT ( 'NONE', #240 ) ;
#297 = ADVANCED_BREP_SHAPE_REPRESENTATION ( 'TTN047574-E0W', ( #18, #287 ), #265 ) ;
#298 = CONICAL_SURFACE ( 'NONE', #274, 6.149999999999995914, 0.7853981633974461696 ) ;
#299 = CC_DESIGN_APPROVAL ( #47, ( #56 ) ) ;
#300 = CARTESIAN_POINT ( 'NONE',  ( 7.776507174585690191E-16, -6.349999999999996092, -1.490000000000001990 ) ) ;
#301 = CARTESIAN_POINT ( 'NONE',  ( 0.0000000000000000000, 2.269195573632860942E-15, -19.55000000000017835 ) ) ;
ENDSEC;
END-ISO-10303-21;
