ISO-10303-21;
HEADER;
FILE_DESCRIPTION (( 'STEP AP203' ),
    '1' );
FILE_NAME ('Web Model 43889_83370.step',
    '2019-01-28T19:01:59',
    ( '' ),
    ( '' ),
    'SwSTEP 2.0',
    'SolidWorks 2016',
    '' );
FILE_SCHEMA (( 'CONFIG_CONTROL_DESIGN' ));
ENDSEC;

DATA;
#1 = FACE_OUTER_BOUND ( 'NONE', #39, .T. ) ;
#2 = LOCAL_TIME ( 14, 1, 59.00000000000000000, #62 ) ;
#3 = CARTESIAN_POINT ( 'NONE',  ( 5.000000000000000000, 6.123233995736766300E-016, -0.8750000000000000000 ) ) ;
#4 = CC_DESIGN_PERSON_AND_ORGANIZATION_ASSIGNMENT ( #6, #21, ( #106 ) ) ;
#5 = DIRECTION ( 'NONE',  ( 0.0000000000000000000, 0.0000000000000000000, 1.000000000000000000 ) ) ;
#6 = PERSON_AND_ORGANIZATION ( #24, #163 ) ;
#7 = ADVANCED_FACE ( 'NONE', ( #16 ), #100, .F. ) ;
#8 = APPLICATION_PROTOCOL_DEFINITION ( 'international standard', 'config_control_design', 1994, #109 ) ;
#9 = VECTOR ( 'NONE', #92, 1000.000000000000000 ) ;
#10 =( NAMED_UNIT ( * ) PLANE_ANGLE_UNIT ( ) SI_UNIT ( $, .RADIAN. ) );
#11 = CC_DESIGN_SECURITY_CLASSIFICATION ( #88, ( #106 ) ) ;
#12 = APPROVAL_ROLE ( '' ) ;
#13 = COORDINATED_UNIVERSAL_TIME_OFFSET ( 5, 0, .BEHIND. ) ;
#14 = LINE ( 'NONE', #103, #29 ) ;
#15 = APPROVAL_PERSON_ORGANIZATION ( #116, #53, #12 ) ;
#16 = FACE_OUTER_BOUND ( 'NONE', #70, .T. ) ;
#17 = LOCAL_TIME ( 14, 1, 59.00000000000000000, #74 ) ;
#18 = AXIS2_PLACEMENT_3D ( 'NONE', #155, #76, #33 ) ;
#19 = PLANE ( 'NONE',  #68 ) ;
#20 = APPROVAL_DATE_TIME ( #81, #53 ) ;
#21 = PERSON_AND_ORGANIZATION_ROLE ( 'design_supplier' ) ;
#22 = PERSON_AND_ORGANIZATION_ROLE ( 'design_owner' ) ;
#23 = PERSON_AND_ORGANIZATION ( #24, #163 ) ;
#24 = PERSON ( 'UNSPECIFIED', 'UNSPECIFIED', 'UNSPECIFIED', ('UNSPECIFIED'), ('UNSPECIFIED'), ('UNSPECIFIED') ) ;
#25 = EDGE_LOOP ( 'NONE', ( #90, #145 ) ) ;
#26 = VERTEX_POINT ( 'NONE', #3 ) ;
#27 = CALENDAR_DATE ( 2019, 28, 1 ) ;
#28 = EDGE_CURVE ( 'NONE', #26, #124, #172, .T. ) ;
#29 = VECTOR ( 'NONE', #125, 1000.000000000000000 ) ;
#30 = CARTESIAN_POINT ( 'NONE',  ( 0.0000000000000000000, 0.0000000000000000000, 0.8750000000000000000 ) ) ;
#31 = CC_DESIGN_PERSON_AND_ORGANIZATION_ASSIGNMENT ( #23, #105, ( #61 ) ) ;
#32 = PERSON_AND_ORGANIZATION ( #24, #163 ) ;
#33 = DIRECTION ( 'NONE',  ( -1.000000000000000000, 0.0000000000000000000, 0.0000000000000000000 ) ) ;
#34 = ADVANCED_FACE ( 'NONE', ( #83 ), #107, .T. ) ;
#35 = ORIENTED_EDGE ( 'NONE', *, *, #110, .T. ) ;
#36 = CARTESIAN_POINT ( 'NONE',  ( 0.0000000000000000000, 0.0000000000000000000, 0.0000000000000000000 ) ) ;
#37 = PRODUCT_DEFINITION_SHAPE ( 'NONE', 'NONE',  #61 ) ;
#38 = EDGE_CURVE ( 'NONE', #98, #66, #133, .T. ) ;
#39 = EDGE_LOOP ( 'NONE', ( #166, #112, #35, #57 ) ) ;
#40 = CIRCLE ( 'NONE', #63, 5.000000000000000000 ) ;
#41 = COORDINATED_UNIVERSAL_TIME_OFFSET ( 5, 0, .BEHIND. ) ;
#42 = DIRECTION ( 'NONE',  ( 0.0000000000000000000, 0.0000000000000000000, 1.000000000000000000 ) ) ;
#43 = DIRECTION ( 'NONE',  ( 0.0000000000000000000, 0.0000000000000000000, 1.000000000000000000 ) ) ;
#44 = CARTESIAN_POINT ( 'NONE',  ( 0.0000000000000000000, 0.0000000000000000000, 0.8750000000000000000 ) ) ;
#45 = DATE_AND_TIME ( #144, #2 ) ;
#46 = DIRECTION ( 'NONE',  ( 1.000000000000000000, 0.0000000000000000000, 0.0000000000000000000 ) ) ;
#47 = SECURITY_CLASSIFICATION_LEVEL ( 'unclassified' ) ;
#48 = CALENDAR_DATE ( 2019, 28, 1 ) ;
#49 = PRODUCT ( 'Web Model 43889_83370', 'Web Model 43889_83370', '', ( #73 ) ) ;
#50 = ORIENTED_EDGE ( 'NONE', *, *, #28, .T. ) ;
#51 = AXIS2_PLACEMENT_3D ( 'NONE', #44, #136, #164 ) ;
#52 = DATE_AND_TIME ( #85, #132 ) ;
#53 = APPROVAL ( #156, 'UNSPECIFIED' ) ;
#54 = APPROVAL_DATE_TIME ( #78, #146 ) ;
#55 = DIRECTION ( 'NONE',  ( 0.0000000000000000000, 0.0000000000000000000, 1.000000000000000000 ) ) ;
#56 = CARTESIAN_POINT ( 'NONE',  ( 5.000000000000000000, 6.123233995736766300E-016, 0.8750000000000000000 ) ) ;
#57 = ORIENTED_EDGE ( 'NONE', *, *, #135, .T. ) ;
#58 = CARTESIAN_POINT ( 'NONE',  ( 0.0000000000000000000, 0.0000000000000000000, 0.8750000000000000000 ) ) ;
#59 = DIRECTION ( 'NONE',  ( 0.0000000000000000000, 0.0000000000000000000, 1.000000000000000000 ) ) ;
#60 = CARTESIAN_POINT ( 'NONE',  ( 0.0000000000000000000, 0.0000000000000000000, -0.8750000000000000000 ) ) ;
#61 = PRODUCT_DEFINITION ( 'UNKNOWN', '', #106, #140 ) ;
#62 = COORDINATED_UNIVERSAL_TIME_OFFSET ( 5, 0, .BEHIND. ) ;
#63 = AXIS2_PLACEMENT_3D ( 'NONE', #60, #59, #138 ) ;
#64 = FACE_OUTER_BOUND ( 'NONE', #25, .T. ) ;
#65 = DATE_AND_TIME ( #48, #17 ) ;
#66 = VERTEX_POINT ( 'NONE', #101 ) ;
#67 = CARTESIAN_POINT ( 'NONE',  ( 0.0000000000000000000, 0.0000000000000000000, -0.8750000000000000000 ) ) ;
#68 = AXIS2_PLACEMENT_3D ( 'NONE', #137, #55, #165 ) ;
#69 = APPROVAL_PERSON_ORGANIZATION ( #120, #146, #170 ) ;
#70 = EDGE_LOOP ( 'NONE', ( #149, #134 ) ) ;
#71 = CYLINDRICAL_SURFACE ( 'NONE', #18, 5.000000000000000000 ) ;
#72 = AXIS2_PLACEMENT_3D ( 'NONE', #58, #154, #153 ) ;
#73 = MECHANICAL_CONTEXT ( 'NONE', #109, 'mechanical' ) ;
#74 = COORDINATED_UNIVERSAL_TIME_OFFSET ( 5, 0, .BEHIND. ) ;
#75 = CC_DESIGN_DATE_AND_TIME_ASSIGNMENT ( #52, #173, ( #61 ) ) ;
#76 = DIRECTION ( 'NONE',  ( -0.0000000000000000000, -0.0000000000000000000, -1.000000000000000000 ) ) ;
#77 = ADVANCED_FACE ( 'NONE', ( #64 ), #19, .T. ) ;
#78 = DATE_AND_TIME ( #119, #151 ) ;
#79 = CC_DESIGN_PERSON_AND_ORGANIZATION_ASSIGNMENT ( #104, #128, ( #106 ) ) ;
#80 = CIRCLE ( 'NONE', #72, 5.000000000000000000 ) ;
#81 = DATE_AND_TIME ( #27, #147 ) ;
#82 = ADVANCED_BREP_SHAPE_REPRESENTATION ( 'Web Model 43889_83370', ( #161, #122 ), #84 ) ;
#83 = FACE_OUTER_BOUND ( 'NONE', #94, .T. ) ;
#84 =( GEOMETRIC_REPRESENTATION_CONTEXT ( 3 ) GLOBAL_UNCERTAINTY_ASSIGNED_CONTEXT ( ( #142 ) ) GLOBAL_UNIT_ASSIGNED_CONTEXT ( ( #115, #10, #117 ) ) REPRESENTATION_CONTEXT ( 'NONE', 'WORKASPACE' ) );
#85 = CALENDAR_DATE ( 2019, 28, 1 ) ;
#86 = COORDINATED_UNIVERSAL_TIME_OFFSET ( 5, 0, .BEHIND. ) ;
#87 = DIRECTION ( 'NONE',  ( 1.000000000000000000, 0.0000000000000000000, 0.0000000000000000000 ) ) ;
#88 = SECURITY_CLASSIFICATION ( '', '', #47 ) ;
#89 = CARTESIAN_POINT ( 'NONE',  ( 0.0000000000000000000, 0.0000000000000000000, -0.8750000000000000000 ) ) ;
#90 = ORIENTED_EDGE ( 'NONE', *, *, #174, .T. ) ;
#91 = APPLICATION_PROTOCOL_DEFINITION ( 'international standard', 'config_control_design', 1994, #118 ) ;
#92 = DIRECTION ( 'NONE',  ( -0.0000000000000000000, -0.0000000000000000000, -1.000000000000000000 ) ) ;
#93 = DATE_TIME_ROLE ( 'classification_date' ) ;
#94 = EDGE_LOOP ( 'NONE', ( #160, #99, #50, #159 ) ) ;
#95 = CC_DESIGN_APPROVAL ( #146, ( #61 ) ) ;
#96 = AXIS2_PLACEMENT_3D ( 'NONE', #30, #43, #46 ) ;
#97 = PERSON_AND_ORGANIZATION ( #24, #163 ) ;
#98 = VERTEX_POINT ( 'NONE', #123 ) ;
#99 = ORIENTED_EDGE ( 'NONE', *, *, #129, .T. ) ;
#100 = PLANE ( 'NONE',  #131 ) ;
#101 = CARTESIAN_POINT ( 'NONE',  ( -5.000000000000000000, 0.0000000000000000000, 0.8750000000000000000 ) ) ;
#102 = AXIS2_PLACEMENT_3D ( 'NONE', #67, #42, #87 ) ;
#103 = CARTESIAN_POINT ( 'NONE',  ( -5.000000000000000000, 0.0000000000000000000, 0.8750000000000000000 ) ) ;
#104 = PERSON_AND_ORGANIZATION ( #24, #163 ) ;
#105 = PERSON_AND_ORGANIZATION_ROLE ( 'creator' ) ;
#106 = PRODUCT_DEFINITION_FORMATION_WITH_SPECIFIED_SOURCE ( 'ANY', '', #49, .NOT_KNOWN. ) ;
#107 = CYLINDRICAL_SURFACE ( 'NONE', #51, 5.000000000000000000 ) ;
#108 = APPROVAL ( #130, 'UNSPECIFIED' ) ;
#109 = APPLICATION_CONTEXT ( 'configuration controlled 3d designs of mechanical parts and assemblies' ) ;
#110 = EDGE_CURVE ( 'NONE', #66, #124, #14, .T. ) ;
#111 = PRODUCT_RELATED_PRODUCT_CATEGORY ( 'detail', '', ( #49 ) ) ;
#112 = ORIENTED_EDGE ( 'NONE', *, *, #174, .F. ) ;
#113 = CC_DESIGN_DATE_AND_TIME_ASSIGNMENT ( #45, #93, ( #88 ) ) ;
#114 = DIRECTION ( 'NONE',  ( 1.000000000000000000, 0.0000000000000000000, -0.0000000000000000000 ) ) ;
#115 =( LENGTH_UNIT ( ) NAMED_UNIT ( * ) SI_UNIT ( .MILLI., .METRE. ) );
#116 = PERSON_AND_ORGANIZATION ( #24, #163 ) ;
#117 =( NAMED_UNIT ( * ) SI_UNIT ( $, .STERADIAN. ) SOLID_ANGLE_UNIT ( ) );
#118 = APPLICATION_CONTEXT ( 'configuration controlled 3d designs of mechanical parts and assemblies' ) ;
#119 = CALENDAR_DATE ( 2019, 28, 1 ) ;
#120 = PERSON_AND_ORGANIZATION ( #24, #163 ) ;
#121 = CC_DESIGN_PERSON_AND_ORGANIZATION_ASSIGNMENT ( #97, #22, ( #49 ) ) ;
#122 = AXIS2_PLACEMENT_3D ( 'NONE', #36, #141, #169 ) ;
#123 = CARTESIAN_POINT ( 'NONE',  ( 5.000000000000000000, 6.123233995736766300E-016, 0.8750000000000000000 ) ) ;
#124 = VERTEX_POINT ( 'NONE', #162 ) ;
#125 = DIRECTION ( 'NONE',  ( -0.0000000000000000000, -0.0000000000000000000, -1.000000000000000000 ) ) ;
#126 = SHAPE_DEFINITION_REPRESENTATION ( #37, #82 ) ;
#127 = APPROVAL_STATUS ( 'not_yet_approved' ) ;
#128 = PERSON_AND_ORGANIZATION_ROLE ( 'creator' ) ;
#129 = EDGE_CURVE ( 'NONE', #98, #26, #148, .T. ) ;
#130 = APPROVAL_STATUS ( 'not_yet_approved' ) ;
#131 = AXIS2_PLACEMENT_3D ( 'NONE', #89, #5, #114 ) ;
#132 = LOCAL_TIME ( 14, 1, 59.00000000000000000, #41 ) ;
#133 = CIRCLE ( 'NONE', #96, 5.000000000000000000 ) ;
#134 = ORIENTED_EDGE ( 'NONE', *, *, #28, .F. ) ;
#135 = EDGE_CURVE ( 'NONE', #124, #26, #40, .T. ) ;
#136 = DIRECTION ( 'NONE',  ( -0.0000000000000000000, -0.0000000000000000000, -1.000000000000000000 ) ) ;
#137 = CARTESIAN_POINT ( 'NONE',  ( 0.0000000000000000000, 0.0000000000000000000, 0.8750000000000000000 ) ) ;
#138 = DIRECTION ( 'NONE',  ( 1.000000000000000000, 0.0000000000000000000, 0.0000000000000000000 ) ) ;
#139 = CLOSED_SHELL ( 'NONE', ( #34, #167, #77, #7 ) ) ;
#140 = DESIGN_CONTEXT ( 'detailed design', #118, 'design' ) ;
#141 = DIRECTION ( 'NONE',  ( 0.0000000000000000000, 0.0000000000000000000, 1.000000000000000000 ) ) ;
#142 = UNCERTAINTY_MEASURE_WITH_UNIT (LENGTH_MEASURE( 1.000000000000000100E-005 ), #115, 'distance_accuracy_value', 'NONE');
#143 = CC_DESIGN_PERSON_AND_ORGANIZATION_ASSIGNMENT ( #32, #158, ( #88 ) ) ;
#144 = CALENDAR_DATE ( 2019, 28, 1 ) ;
#145 = ORIENTED_EDGE ( 'NONE', *, *, #38, .T. ) ;
#146 = APPROVAL ( #127, 'UNSPECIFIED' ) ;
#147 = LOCAL_TIME ( 14, 1, 59.00000000000000000, #13 ) ;
#148 = LINE ( 'NONE', #56, #9 ) ;
#149 = ORIENTED_EDGE ( 'NONE', *, *, #135, .F. ) ;
#150 = APPROVAL_PERSON_ORGANIZATION ( #168, #108, #171 ) ;
#151 = LOCAL_TIME ( 14, 1, 59.00000000000000000, #86 ) ;
#152 = CC_DESIGN_APPROVAL ( #108, ( #106 ) ) ;
#153 = DIRECTION ( 'NONE',  ( 1.000000000000000000, 0.0000000000000000000, 0.0000000000000000000 ) ) ;
#154 = DIRECTION ( 'NONE',  ( 0.0000000000000000000, 0.0000000000000000000, 1.000000000000000000 ) ) ;
#155 = CARTESIAN_POINT ( 'NONE',  ( 0.0000000000000000000, 0.0000000000000000000, 0.8750000000000000000 ) ) ;
#156 = APPROVAL_STATUS ( 'not_yet_approved' ) ;
#157 = CC_DESIGN_APPROVAL ( #53, ( #88 ) ) ;
#158 = PERSON_AND_ORGANIZATION_ROLE ( 'classification_officer' ) ;
#159 = ORIENTED_EDGE ( 'NONE', *, *, #110, .F. ) ;
#160 = ORIENTED_EDGE ( 'NONE', *, *, #38, .F. ) ;
#161 = MANIFOLD_SOLID_BREP ( 'Boss-Extrude1', #139 ) ;
#162 = CARTESIAN_POINT ( 'NONE',  ( -5.000000000000000000, 0.0000000000000000000, -0.8750000000000000000 ) ) ;
#163 = ORGANIZATION ( 'UNSPECIFIED', 'UNSPECIFIED', '' ) ;
#164 = DIRECTION ( 'NONE',  ( -1.000000000000000000, 0.0000000000000000000, 0.0000000000000000000 ) ) ;
#165 = DIRECTION ( 'NONE',  ( 1.000000000000000000, 0.0000000000000000000, -0.0000000000000000000 ) ) ;
#166 = ORIENTED_EDGE ( 'NONE', *, *, #129, .F. ) ;
#167 = ADVANCED_FACE ( 'NONE', ( #1 ), #71, .T. ) ;
#168 = PERSON_AND_ORGANIZATION ( #24, #163 ) ;
#169 = DIRECTION ( 'NONE',  ( 1.000000000000000000, 0.0000000000000000000, 0.0000000000000000000 ) ) ;
#170 = APPROVAL_ROLE ( '' ) ;
#171 = APPROVAL_ROLE ( '' ) ;
#172 = CIRCLE ( 'NONE', #102, 5.000000000000000000 ) ;
#173 = DATE_TIME_ROLE ( 'creation_date' ) ;
#174 = EDGE_CURVE ( 'NONE', #66, #98, #80, .T. ) ;
#175 = APPROVAL_DATE_TIME ( #65, #108 ) ;
ENDSEC;
END-ISO-10303-21;
