ISO-10303-21;
HEADER;
FILE_DESCRIPTION (( 'STEP AP203' ),
    '1' );
FILE_NAME ('Web Model 62883.STEP',
    '2017-01-31T18:26:11',
    ( '' ),
    ( '' ),
    'SwSTEP 2.0',
    'SolidWorks 2016',
    '' );
FILE_SCHEMA (( 'CONFIG_CONTROL_DESIGN' ));
ENDSEC;

DATA;
#1 = DIRECTION ( 'NONE',  ( 1.000000000000000000, 0.0000000000000000000, 0.0000000000000000000 ) ) ;
#2 = PERSON_AND_ORGANIZATION_ROLE ( 'creator' ) ;
#3 = VECTOR ( 'NONE', #190, 1000.000000000000000 ) ;
#4 = PERSON_AND_ORGANIZATION ( #11, #46 ) ;
#5 = DIRECTION ( 'NONE',  ( 0.0000000000000000000, 0.0000000000000000000, 1.000000000000000000 ) ) ;
#6 = PLANE ( 'NONE',  #148 ) ;
#7 = EDGE_LOOP ( 'NONE', ( #195, #98, #166, #211 ) ) ;
#8 = VECTOR ( 'NONE', #218, 1000.000000000000000 ) ;
#9 = AXIS2_PLACEMENT_3D ( 'NONE', #194, #30, #5 ) ;
#10 = ORIENTED_EDGE ( 'NONE', *, *, #222, .F. ) ;
#11 = PERSON ( 'UNSPECIFIED', 'UNSPECIFIED', 'UNSPECIFIED', ('UNSPECIFIED'), ('UNSPECIFIED'), ('UNSPECIFIED') ) ;
#12 = FACE_OUTER_BOUND ( 'NONE', #7, .T. ) ;
#13 = CC_DESIGN_SECURITY_CLASSIFICATION ( #135, ( #52 ) ) ;
#14 = ORIENTED_EDGE ( 'NONE', *, *, #198, .T. ) ;
#15 = ADVANCED_FACE ( 'NONE', ( #161 ), #6, .F. ) ;
#16 = APPROVAL_ROLE ( '' ) ;
#17 = EDGE_LOOP ( 'NONE', ( #57, #63, #21, #208 ) ) ;
#18 = DIRECTION ( 'NONE',  ( 0.0000000000000000000, -0.0000000000000000000, 1.000000000000000000 ) ) ;
#19 = CARTESIAN_POINT ( 'NONE',  ( -37.50000000000000000, -25.00000000000000000, -3.000000000000000000 ) ) ;
#20 = DIRECTION ( 'NONE',  ( 0.0000000000000000000, -1.000000000000000000, 0.0000000000000000000 ) ) ;
#21 = ORIENTED_EDGE ( 'NONE', *, *, #65, .T. ) ;
#22 = VECTOR ( 'NONE', #96, 1000.000000000000000 ) ;
#23 = EDGE_CURVE ( 'NONE', #25, #155, #188, .T. ) ;
#24 = DATE_AND_TIME ( #232, #77 ) ;
#25 = VERTEX_POINT ( 'NONE', #168 ) ;
#26 = VECTOR ( 'NONE', #167, 1000.000000000000000 ) ;
#27 = CARTESIAN_POINT ( 'NONE',  ( 0.0000000000000000000, 0.0000000000000000000, 0.0000000000000000000 ) ) ;
#28 = ADVANCED_FACE ( 'NONE', ( #12 ), #106, .T. ) ;
#29 =( NAMED_UNIT ( * ) SI_UNIT ( $, .STERADIAN. ) SOLID_ANGLE_UNIT ( ) );
#30 = DIRECTION ( 'NONE',  ( -1.000000000000000000, 0.0000000000000000000, 0.0000000000000000000 ) ) ;
#31 = APPLICATION_PROTOCOL_DEFINITION ( 'international standard', 'config_control_design', 1994, #70 ) ;
#32 = CALENDAR_DATE ( 2017, 31, 1 ) ;
#33 = VECTOR ( 'NONE', #36, 1000.000000000000000 ) ;
#34 = AXIS2_PLACEMENT_3D ( 'NONE', #237, #112, #18 ) ;
#35 = PERSON_AND_ORGANIZATION ( #11, #46 ) ;
#36 = DIRECTION ( 'NONE',  ( 1.000000000000000000, 0.0000000000000000000, 0.0000000000000000000 ) ) ;
#37 = DIRECTION ( 'NONE',  ( -0.0000000000000000000, 0.0000000000000000000, -1.000000000000000000 ) ) ;
#38 = DATE_AND_TIME ( #91, #220 ) ;
#39 = VECTOR ( 'NONE', #133, 1000.000000000000000 ) ;
#40 = CARTESIAN_POINT ( 'NONE',  ( -37.50000000000000000, 25.00000000000000000, -3.000000000000000000 ) ) ;
#41 = CARTESIAN_POINT ( 'NONE',  ( -37.50000000000000000, -25.00000000000000000, -3.000000000000000000 ) ) ;
#42 = PERSON_AND_ORGANIZATION ( #11, #46 ) ;
#43 = VECTOR ( 'NONE', #49, 1000.000000000000000 ) ;
#44 = CARTESIAN_POINT ( 'NONE',  ( -37.50000000000000000, 25.00000000000000000, -3.000000000000000000 ) ) ;
#45 = APPROVAL_DATE_TIME ( #24, #118 ) ;
#46 = ORGANIZATION ( 'UNSPECIFIED', 'UNSPECIFIED', '' ) ;
#47 = APPROVAL ( #178, 'UNSPECIFIED' ) ;
#48 = ORIENTED_EDGE ( 'NONE', *, *, #65, .F. ) ;
#49 = DIRECTION ( 'NONE',  ( 0.0000000000000000000, 0.0000000000000000000, 1.000000000000000000 ) ) ;
#50 = APPROVAL_STATUS ( 'not_yet_approved' ) ;
#51 = SHAPE_DEFINITION_REPRESENTATION ( #58, #163 ) ;
#52 = PRODUCT_DEFINITION_FORMATION_WITH_SPECIFIED_SOURCE ( 'ANY', '', #152, .NOT_KNOWN. ) ;
#53 = CARTESIAN_POINT ( 'NONE',  ( -37.50000000000000000, -25.00000000000000000, 0.0000000000000000000 ) ) ;
#54 = DIRECTION ( 'NONE',  ( 1.000000000000000000, 0.0000000000000000000, 0.0000000000000000000 ) ) ;
#55 = PERSON_AND_ORGANIZATION ( #11, #46 ) ;
#56 = EDGE_LOOP ( 'NONE', ( #213, #93, #82, #68 ) ) ;
#57 = ORIENTED_EDGE ( 'NONE', *, *, #130, .F. ) ;
#58 = PRODUCT_DEFINITION_SHAPE ( 'NONE', 'NONE',  #100 ) ;
#59 = EDGE_CURVE ( 'NONE', #199, #146, #129, .T. ) ;
#60 = ORIENTED_EDGE ( 'NONE', *, *, #222, .T. ) ;
#61 = LINE ( 'NONE', #80, #174 ) ;
#62 = PERSON_AND_ORGANIZATION ( #11, #46 ) ;
#63 = ORIENTED_EDGE ( 'NONE', *, *, #185, .F. ) ;
#64 = ORIENTED_EDGE ( 'NONE', *, *, #142, .F. ) ;
#65 = EDGE_CURVE ( 'NONE', #155, #154, #180, .T. ) ;
#66 = APPLICATION_CONTEXT ( 'configuration controlled 3d designs of mechanical parts and assemblies' ) ;
#67 = ADVANCED_FACE ( 'NONE', ( #226 ), #216, .T. ) ;
#68 = ORIENTED_EDGE ( 'NONE', *, *, #147, .T. ) ;
#69 = DESIGN_CONTEXT ( 'detailed design', #70, 'design' ) ;
#70 = APPLICATION_CONTEXT ( 'configuration controlled 3d designs of mechanical parts and assemblies' ) ;
#71 = CARTESIAN_POINT ( 'NONE',  ( 37.50000000000000000, 25.00000000000000000, -3.000000000000000000 ) ) ;
#72 = PERSON_AND_ORGANIZATION_ROLE ( 'classification_officer' ) ;
#73 = CARTESIAN_POINT ( 'NONE',  ( -37.50000000000000000, -25.00000000000000000, 0.0000000000000000000 ) ) ;
#74 = EDGE_LOOP ( 'NONE', ( #204, #10, #102, #111 ) ) ;
#75 = MANIFOLD_SOLID_BREP ( 'Extrude1', #101 ) ;
#76 = CC_DESIGN_APPROVAL ( #47, ( #100 ) ) ;
#77 = LOCAL_TIME ( 13, 26, 11.00000000000000000, #119 ) ;
#78 = CARTESIAN_POINT ( 'NONE',  ( 37.50000000000000000, -25.00000000000000000, -3.000000000000000000 ) ) ;
#79 = FACE_OUTER_BOUND ( 'NONE', #74, .T. ) ;
#80 = CARTESIAN_POINT ( 'NONE',  ( 37.50000000000000000, 25.00000000000000000, -3.000000000000000000 ) ) ;
#81 = PRODUCT_RELATED_PRODUCT_CATEGORY ( 'detail', '', ( #152 ) ) ;
#82 = ORIENTED_EDGE ( 'NONE', *, *, #206, .T. ) ;
#83 = CARTESIAN_POINT ( 'NONE',  ( 37.50000000000000000, 25.00000000000000000, 0.0000000000000000000 ) ) ;
#84 = DATE_AND_TIME ( #32, #95 ) ;
#85 = PLANE ( 'NONE',  #176 ) ;
#86 = VERTEX_POINT ( 'NONE', #143 ) ;
#87 = LINE ( 'NONE', #83, #134 ) ;
#88 = CARTESIAN_POINT ( 'NONE',  ( -37.50000000000000000, 25.00000000000000000, 0.0000000000000000000 ) ) ;
#89 = APPROVAL_ROLE ( '' ) ;
#90 = CARTESIAN_POINT ( 'NONE',  ( -37.50000000000000000, -25.00000000000000000, 0.0000000000000000000 ) ) ;
#91 = CALENDAR_DATE ( 2017, 31, 1 ) ;
#92 = CARTESIAN_POINT ( 'NONE',  ( 37.50000000000000000, 25.00000000000000000, 0.0000000000000000000 ) ) ;
#93 = ORIENTED_EDGE ( 'NONE', *, *, #130, .T. ) ;
#94 = PERSON_AND_ORGANIZATION_ROLE ( 'design_supplier' ) ;
#95 = LOCAL_TIME ( 13, 26, 11.00000000000000000, #157 ) ;
#96 = DIRECTION ( 'NONE',  ( 0.0000000000000000000, 0.0000000000000000000, 1.000000000000000000 ) ) ;
#97 = CARTESIAN_POINT ( 'NONE',  ( -37.50000000000000000, -25.00000000000000000, -3.000000000000000000 ) ) ;
#98 = ORIENTED_EDGE ( 'NONE', *, *, #236, .F. ) ;
#99 = FACE_OUTER_BOUND ( 'NONE', #17, .T. ) ;
#100 = PRODUCT_DEFINITION ( 'UNKNOWN', '', #52, #69 ) ;
#101 = CLOSED_SHELL ( 'NONE', ( #121, #67, #28, #215, #15, #137 ) ) ;
#102 = ORIENTED_EDGE ( 'NONE', *, *, #23, .T. ) ;
#103 = EDGE_CURVE ( 'NONE', #117, #149, #196, .T. ) ;
#104 = DIRECTION ( 'NONE',  ( 1.000000000000000000, 0.0000000000000000000, -0.0000000000000000000 ) ) ;
#105 = COORDINATED_UNIVERSAL_TIME_OFFSET ( 5, 0, .BEHIND. ) ;
#106 = PLANE ( 'NONE',  #122 ) ;
#107 = CALENDAR_DATE ( 2017, 31, 1 ) ;
#108 = LINE ( 'NONE', #97, #22 ) ;
#109 = CC_DESIGN_DATE_AND_TIME_ASSIGNMENT ( #38, #123, ( #100 ) ) ;
#110 = COORDINATED_UNIVERSAL_TIME_OFFSET ( 5, 0, .BEHIND. ) ;
#111 = ORIENTED_EDGE ( 'NONE', *, *, #185, .T. ) ;
#112 = DIRECTION ( 'NONE',  ( 0.0000000000000000000, 1.000000000000000000, 0.0000000000000000000 ) ) ;
#113 = APPROVAL ( #50, 'UNSPECIFIED' ) ;
#114 = VECTOR ( 'NONE', #138, 1000.000000000000000 ) ;
#115 =( GEOMETRIC_REPRESENTATION_CONTEXT ( 3 ) GLOBAL_UNCERTAINTY_ASSIGNED_CONTEXT ( ( #202 ) ) GLOBAL_UNIT_ASSIGNED_CONTEXT ( ( #136, #191, #29 ) ) REPRESENTATION_CONTEXT ( 'NONE', 'WORKASPACE' ) );
#116 = DATE_AND_TIME ( #165, #212 ) ;
#117 = VERTEX_POINT ( 'NONE', #140 ) ;
#118 = APPROVAL ( #193, 'UNSPECIFIED' ) ;
#119 = COORDINATED_UNIVERSAL_TIME_OFFSET ( 5, 0, .BEHIND. ) ;
#120 = EDGE_LOOP ( 'NONE', ( #158, #169, #64, #48 ) ) ;
#121 = ADVANCED_FACE ( 'NONE', ( #79 ), #164, .T. ) ;
#122 = AXIS2_PLACEMENT_3D ( 'NONE', #192, #104, #37 ) ;
#123 = DATE_TIME_ROLE ( 'creation_date' ) ;
#124 = APPROVAL_PERSON_ORGANIZATION ( #203, #47, #89 ) ;
#125 = LINE ( 'NONE', #90, #26 ) ;
#126 = DATE_TIME_ROLE ( 'classification_date' ) ;
#127 = CARTESIAN_POINT ( 'NONE',  ( -37.50000000000000000, 25.00000000000000000, -3.000000000000000000 ) ) ;
#128 = APPROVAL_DATE_TIME ( #84, #47 ) ;
#129 = LINE ( 'NONE', #88, #114 ) ;
#130 = EDGE_CURVE ( 'NONE', #146, #86, #125, .T. ) ;
#131 = AXIS2_PLACEMENT_3D ( 'NONE', #27, #200, #181 ) ;
#132 = EDGE_LOOP ( 'NONE', ( #173, #186, #14, #60 ) ) ;
#133 = DIRECTION ( 'NONE',  ( 0.0000000000000000000, 0.0000000000000000000, 1.000000000000000000 ) ) ;
#134 = VECTOR ( 'NONE', #229, 1000.000000000000000 ) ;
#135 = SECURITY_CLASSIFICATION ( '', '', #217 ) ;
#136 =( LENGTH_UNIT ( ) NAMED_UNIT ( * ) SI_UNIT ( .MILLI., .METRE. ) );
#137 = ADVANCED_FACE ( 'NONE', ( #223 ), #159, .T. ) ;
#138 = DIRECTION ( 'NONE',  ( 0.0000000000000000000, -1.000000000000000000, 0.0000000000000000000 ) ) ;
#139 = APPLICATION_PROTOCOL_DEFINITION ( 'international standard', 'config_control_design', 1994, #66 ) ;
#140 = CARTESIAN_POINT ( 'NONE',  ( 37.50000000000000000, 25.00000000000000000, -3.000000000000000000 ) ) ;
#141 = LINE ( 'NONE', #44, #3 ) ;
#142 = EDGE_CURVE ( 'NONE', #154, #117, #61, .T. ) ;
#143 = CARTESIAN_POINT ( 'NONE',  ( 37.50000000000000000, -25.00000000000000000, 0.0000000000000000000 ) ) ;
#144 = LOCAL_TIME ( 13, 26, 11.00000000000000000, #105 ) ;
#145 = CARTESIAN_POINT ( 'NONE',  ( -37.50000000000000000, -25.00000000000000000, -3.000000000000000000 ) ) ;
#146 = VERTEX_POINT ( 'NONE', #73 ) ;
#147 = EDGE_CURVE ( 'NONE', #149, #199, #162, .T. ) ;
#148 = AXIS2_PLACEMENT_3D ( 'NONE', #19, #224, #1 ) ;
#149 = VERTEX_POINT ( 'NONE', #92 ) ;
#150 = VECTOR ( 'NONE', #184, 1000.000000000000000 ) ;
#151 = CC_DESIGN_PERSON_AND_ORGANIZATION_ASSIGNMENT ( #4, #72, ( #135 ) ) ;
#152 = PRODUCT ( 'Web Model 62883', 'Web Model 62883', '', ( #177 ) ) ;
#153 = APPROVAL_PERSON_ORGANIZATION ( #207, #113, #219 ) ;
#154 = VERTEX_POINT ( 'NONE', #78 ) ;
#155 = VERTEX_POINT ( 'NONE', #183 ) ;
#156 = CC_DESIGN_APPROVAL ( #118, ( #52 ) ) ;
#157 = COORDINATED_UNIVERSAL_TIME_OFFSET ( 5, 0, .BEHIND. ) ;
#158 = ORIENTED_EDGE ( 'NONE', *, *, #23, .F. ) ;
#159 = PLANE ( 'NONE',  #175 ) ;
#160 = APPROVAL_DATE_TIME ( #210, #113 ) ;
#161 = FACE_OUTER_BOUND ( 'NONE', #120, .T. ) ;
#162 = LINE ( 'NONE', #201, #8 ) ;
#163 = ADVANCED_BREP_SHAPE_REPRESENTATION ( 'Web Model 62883', ( #75, #131 ), #115 ) ;
#164 = PLANE ( 'NONE',  #9 ) ;
#165 = CALENDAR_DATE ( 2017, 31, 1 ) ;
#166 = ORIENTED_EDGE ( 'NONE', *, *, #142, .T. ) ;
#167 = DIRECTION ( 'NONE',  ( 1.000000000000000000, 0.0000000000000000000, 0.0000000000000000000 ) ) ;
#168 = CARTESIAN_POINT ( 'NONE',  ( -37.50000000000000000, 25.00000000000000000, -3.000000000000000000 ) ) ;
#169 = ORIENTED_EDGE ( 'NONE', *, *, #198, .F. ) ;
#170 = CC_DESIGN_PERSON_AND_ORGANIZATION_ASSIGNMENT ( #35, #2, ( #52 ) ) ;
#171 = CARTESIAN_POINT ( 'NONE',  ( -37.50000000000000000, 25.00000000000000000, 0.0000000000000000000 ) ) ;
#172 = PERSON_AND_ORGANIZATION ( #11, #46 ) ;
#173 = ORIENTED_EDGE ( 'NONE', *, *, #147, .F. ) ;
#174 = VECTOR ( 'NONE', #225, 1000.000000000000000 ) ;
#175 = AXIS2_PLACEMENT_3D ( 'NONE', #53, #179, #54 ) ;
#176 = AXIS2_PLACEMENT_3D ( 'NONE', #41, #231, #209 ) ;
#177 = MECHANICAL_CONTEXT ( 'NONE', #66, 'mechanical' ) ;
#178 = APPROVAL_STATUS ( 'not_yet_approved' ) ;
#179 = DIRECTION ( 'NONE',  ( -0.0000000000000000000, 0.0000000000000000000, 1.000000000000000000 ) ) ;
#180 = LINE ( 'NONE', #145, #33 ) ;
#181 = DIRECTION ( 'NONE',  ( 1.000000000000000000, 0.0000000000000000000, 0.0000000000000000000 ) ) ;
#182 = CC_DESIGN_PERSON_AND_ORGANIZATION_ASSIGNMENT ( #55, #94, ( #52 ) ) ;
#183 = CARTESIAN_POINT ( 'NONE',  ( -37.50000000000000000, -25.00000000000000000, -3.000000000000000000 ) ) ;
#184 = DIRECTION ( 'NONE',  ( -1.000000000000000000, -0.0000000000000000000, -0.0000000000000000000 ) ) ;
#185 = EDGE_CURVE ( 'NONE', #155, #146, #108, .T. ) ;
#186 = ORIENTED_EDGE ( 'NONE', *, *, #103, .F. ) ;
#187 = LINE ( 'NONE', #205, #39 ) ;
#188 = LINE ( 'NONE', #127, #233 ) ;
#189 = LINE ( 'NONE', #40, #150 ) ;
#190 = DIRECTION ( 'NONE',  ( 0.0000000000000000000, 0.0000000000000000000, 1.000000000000000000 ) ) ;
#191 =( NAMED_UNIT ( * ) PLANE_ANGLE_UNIT ( ) SI_UNIT ( $, .RADIAN. ) );
#192 = CARTESIAN_POINT ( 'NONE',  ( 37.50000000000000000, 25.00000000000000000, -3.000000000000000000 ) ) ;
#193 = APPROVAL_STATUS ( 'not_yet_approved' ) ;
#194 = CARTESIAN_POINT ( 'NONE',  ( -37.50000000000000000, 25.00000000000000000, -3.000000000000000000 ) ) ;
#195 = ORIENTED_EDGE ( 'NONE', *, *, #206, .F. ) ;
#196 = LINE ( 'NONE', #71, #43 ) ;
#197 = PERSON_AND_ORGANIZATION_ROLE ( 'creator' ) ;
#198 = EDGE_CURVE ( 'NONE', #117, #25, #189, .T. ) ;
#199 = VERTEX_POINT ( 'NONE', #171 ) ;
#200 = DIRECTION ( 'NONE',  ( 0.0000000000000000000, 0.0000000000000000000, 1.000000000000000000 ) ) ;
#201 = CARTESIAN_POINT ( 'NONE',  ( -37.50000000000000000, 25.00000000000000000, 0.0000000000000000000 ) ) ;
#202 = UNCERTAINTY_MEASURE_WITH_UNIT (LENGTH_MEASURE( 1.000000000000000100E-005 ), #136, 'distance_accuracy_value', 'NONE');
#203 = PERSON_AND_ORGANIZATION ( #11, #46 ) ;
#204 = ORIENTED_EDGE ( 'NONE', *, *, #59, .F. ) ;
#205 = CARTESIAN_POINT ( 'NONE',  ( 37.50000000000000000, -25.00000000000000000, -3.000000000000000000 ) ) ;
#206 = EDGE_CURVE ( 'NONE', #86, #149, #87, .T. ) ;
#207 = PERSON_AND_ORGANIZATION ( #11, #46 ) ;
#208 = ORIENTED_EDGE ( 'NONE', *, *, #236, .T. ) ;
#209 = DIRECTION ( 'NONE',  ( 0.0000000000000000000, -0.0000000000000000000, -1.000000000000000000 ) ) ;
#210 = DATE_AND_TIME ( #107, #144 ) ;
#211 = ORIENTED_EDGE ( 'NONE', *, *, #103, .T. ) ;
#212 = LOCAL_TIME ( 13, 26, 11.00000000000000000, #228 ) ;
#213 = ORIENTED_EDGE ( 'NONE', *, *, #59, .T. ) ;
#214 = CC_DESIGN_DATE_AND_TIME_ASSIGNMENT ( #116, #126, ( #135 ) ) ;
#215 = ADVANCED_FACE ( 'NONE', ( #99 ), #85, .T. ) ;
#216 = PLANE ( 'NONE',  #34 ) ;
#217 = SECURITY_CLASSIFICATION_LEVEL ( 'unclassified' ) ;
#218 = DIRECTION ( 'NONE',  ( -1.000000000000000000, -0.0000000000000000000, -0.0000000000000000000 ) ) ;
#219 = APPROVAL_ROLE ( '' ) ;
#220 = LOCAL_TIME ( 13, 26, 11.00000000000000000, #110 ) ;
#221 = PERSON_AND_ORGANIZATION_ROLE ( 'design_owner' ) ;
#222 = EDGE_CURVE ( 'NONE', #25, #199, #141, .T. ) ;
#223 = FACE_OUTER_BOUND ( 'NONE', #56, .T. ) ;
#224 = DIRECTION ( 'NONE',  ( -0.0000000000000000000, 0.0000000000000000000, 1.000000000000000000 ) ) ;
#225 = DIRECTION ( 'NONE',  ( -0.0000000000000000000, 1.000000000000000000, -0.0000000000000000000 ) ) ;
#226 = FACE_OUTER_BOUND ( 'NONE', #132, .T. ) ;
#227 = CC_DESIGN_PERSON_AND_ORGANIZATION_ASSIGNMENT ( #172, #221, ( #152 ) ) ;
#228 = COORDINATED_UNIVERSAL_TIME_OFFSET ( 5, 0, .BEHIND. ) ;
#229 = DIRECTION ( 'NONE',  ( -0.0000000000000000000, 1.000000000000000000, -0.0000000000000000000 ) ) ;
#230 = CC_DESIGN_APPROVAL ( #113, ( #135 ) ) ;
#231 = DIRECTION ( 'NONE',  ( 0.0000000000000000000, -1.000000000000000000, 0.0000000000000000000 ) ) ;
#232 = CALENDAR_DATE ( 2017, 31, 1 ) ;
#233 = VECTOR ( 'NONE', #20, 1000.000000000000000 ) ;
#234 = CC_DESIGN_PERSON_AND_ORGANIZATION_ASSIGNMENT ( #42, #197, ( #100 ) ) ;
#235 = APPROVAL_PERSON_ORGANIZATION ( #62, #118, #16 ) ;
#236 = EDGE_CURVE ( 'NONE', #154, #86, #187, .T. ) ;
#237 = CARTESIAN_POINT ( 'NONE',  ( -37.50000000000000000, 25.00000000000000000, -3.000000000000000000 ) ) ;
ENDSEC;
END-ISO-10303-21;
