ISO-10303-21;
HEADER;
FILE_DESCRIPTION (( 'STEP AP203' ),
    '1' );
FILE_NAME ('Web Model 12452_12452.step',
    '2019-11-01T14:39:48',
    ( '' ),
    ( '' ),
    'SwSTEP 2.0',
    'SolidWorks 2018',
    '' );
FILE_SCHEMA (( 'CONFIG_CONTROL_DESIGN' ));
ENDSEC;

DATA;
#1 = DIRECTION ( 'NONE',  ( 0.0000000000000000000, 0.0000000000000000000, 1.000000000000000000 ) ) ;
#2 = DIRECTION ( 'NONE',  ( 1.000000000000000000, 0.0000000000000000000, 0.0000000000000000000 ) ) ;
#3 = VERTEX_POINT ( 'NONE', #94 ) ;
#4 = PLANE ( 'NONE',  #157 ) ;
#5 = CC_DESIGN_PERSON_AND_ORGANIZATION_ASSIGNMENT ( #102, #141, ( #58 ) ) ;
#6 = DIRECTION ( 'NONE',  ( 1.000000000000000000, 0.0000000000000000000, 0.0000000000000000000 ) ) ;
#7 = CARTESIAN_POINT ( 'NONE',  ( -0.8000000000000000444, 0.0000000000000000000, 0.0000000000000000000 ) ) ;
#8 = PRODUCT_DEFINITION_SHAPE ( 'NONE', 'NONE',  #80 ) ;
#9 = PERSON_AND_ORGANIZATION ( #150, #127 ) ;
#10 = DIRECTION ( 'NONE',  ( 0.0000000000000000000, 0.0000000000000000000, 1.000000000000000000 ) ) ;
#11 = CYLINDRICAL_SURFACE ( 'NONE', #174, 10.00000000000000000 ) ;
#12 = PERSON_AND_ORGANIZATION ( #150, #127 ) ;
#13 = ADVANCED_FACE ( 'NONE', ( #128 ), #4, .T. ) ;
#14 = CC_DESIGN_PERSON_AND_ORGANIZATION_ASSIGNMENT ( #67, #142, ( #119 ) ) ;
#15 = LOCAL_TIME ( 10, 39, 48.00000000000000000, #33 ) ;
#16 = ORIENTED_EDGE ( 'NONE', *, *, #49, .F. ) ;
#17 = AXIS2_PLACEMENT_3D ( 'NONE', #7, #129, #170 ) ;
#18 = CALENDAR_DATE ( 2019, 1, 11 ) ;
#19 = VERTEX_POINT ( 'NONE', #105 ) ;
#20 = DIRECTION ( 'NONE',  ( 0.0000000000000000000, 0.0000000000000000000, -1.000000000000000000 ) ) ;
#21 = COORDINATED_UNIVERSAL_TIME_OFFSET ( 5, 0, .BEHIND. ) ;
#22 = APPROVAL ( #107, 'UNSPECIFIED' ) ;
#23 = DIRECTION ( 'NONE',  ( 0.0000000000000000000, 0.0000000000000000000, -1.000000000000000000 ) ) ;
#24 = ORIENTED_EDGE ( 'NONE', *, *, #124, .T. ) ;
#25 = MANIFOLD_SOLID_BREP ( 'Boss-Extrude1', #172 ) ;
#26 = APPROVAL_ROLE ( '' ) ;
#27 = DIRECTION ( 'NONE',  ( -1.000000000000000000, -0.0000000000000000000, -0.0000000000000000000 ) ) ;
#28 = DATE_TIME_ROLE ( 'classification_date' ) ;
#29 = CC_DESIGN_APPROVAL ( #22, ( #80 ) ) ;
#30 = AXIS2_PLACEMENT_3D ( 'NONE', #86, #2, #20 ) ;
#31 = LOCAL_TIME ( 10, 39, 48.00000000000000000, #114 ) ;
#32 = PERSON_AND_ORGANIZATION ( #150, #127 ) ;
#33 = COORDINATED_UNIVERSAL_TIME_OFFSET ( 5, 0, .BEHIND. ) ;
#34 = ORIENTED_EDGE ( 'NONE', *, *, #100, .F. ) ;
#35 = APPROVAL ( #106, 'UNSPECIFIED' ) ;
#36 = DIRECTION ( 'NONE',  ( 1.000000000000000000, 0.0000000000000000000, 0.0000000000000000000 ) ) ;
#37 = DIRECTION ( 'NONE',  ( 1.000000000000000000, 0.0000000000000000000, 0.0000000000000000000 ) ) ;
#38 = DATE_AND_TIME ( #18, #15 ) ;
#39 = APPROVAL_PERSON_ORGANIZATION ( #65, #22, #26 ) ;
#40 = DIRECTION ( 'NONE',  ( 1.000000000000000000, 0.0000000000000000000, 0.0000000000000000000 ) ) ;
#41 = CARTESIAN_POINT ( 'NONE',  ( 0.8000000000000000444, 0.0000000000000000000, 0.0000000000000000000 ) ) ;
#42 = DATE_TIME_ROLE ( 'creation_date' ) ;
#43 = APPROVAL_STATUS ( 'not_yet_approved' ) ;
#44 = PRODUCT_RELATED_PRODUCT_CATEGORY ( 'detail', '', ( #119 ) ) ;
#45 = LOCAL_TIME ( 10, 39, 48.00000000000000000, #117 ) ;
#46 = APPLICATION_CONTEXT ( 'configuration controlled 3d designs of mechanical parts and assemblies' ) ;
#47 = CARTESIAN_POINT ( 'NONE',  ( 0.8000000000000000444, 0.0000000000000000000, 10.00000000000000000 ) ) ;
#48 = CIRCLE ( 'NONE', #17, 10.00000000000000000 ) ;
#49 = EDGE_CURVE ( 'NONE', #140, #3, #82, .T. ) ;
#50 = CC_DESIGN_PERSON_AND_ORGANIZATION_ASSIGNMENT ( #60, #122, ( #57 ) ) ;
#51 = CALENDAR_DATE ( 2019, 1, 11 ) ;
#52 = COORDINATED_UNIVERSAL_TIME_OFFSET ( 5, 0, .BEHIND. ) ;
#53 = LOCAL_TIME ( 10, 39, 48.00000000000000000, #21 ) ;
#54 = APPROVAL_PERSON_ORGANIZATION ( #130, #101, #154 ) ;
#55 = LINE ( 'NONE', #169, #135 ) ;
#56 =( NAMED_UNIT ( * ) SI_UNIT ( $, .STERADIAN. ) SOLID_ANGLE_UNIT ( ) );
#57 = SECURITY_CLASSIFICATION ( '', '', #62 ) ;
#58 = PRODUCT_DEFINITION_FORMATION_WITH_SPECIFIED_SOURCE ( 'ANY', '', #119, .NOT_KNOWN. ) ;
#59 = DIRECTION ( 'NONE',  ( 0.0000000000000000000, 0.0000000000000000000, 1.000000000000000000 ) ) ;
#60 = PERSON_AND_ORGANIZATION ( #150, #127 ) ;
#61 = EDGE_LOOP ( 'NONE', ( #92, #24, #139, #79 ) ) ;
#62 = SECURITY_CLASSIFICATION_LEVEL ( 'unclassified' ) ;
#63 = ORIENTED_EDGE ( 'NONE', *, *, #49, .T. ) ;
#64 = EDGE_LOOP ( 'NONE', ( #134, #136 ) ) ;
#65 = PERSON_AND_ORGANIZATION ( #150, #127 ) ;
#66 = CC_DESIGN_DATE_AND_TIME_ASSIGNMENT ( #97, #42, ( #80 ) ) ;
#67 = PERSON_AND_ORGANIZATION ( #150, #127 ) ;
#68 = CARTESIAN_POINT ( 'NONE',  ( -0.8000000000000000444, 0.0000000000000000000, 10.00000000000000000 ) ) ;
#69 = APPLICATION_PROTOCOL_DEFINITION ( 'international standard', 'config_control_design', 1994, #46 ) ;
#70 = DESIGN_CONTEXT ( 'detailed design', #152, 'design' ) ;
#71 = PLANE ( 'NONE',  #109 ) ;
#72 = ORIENTED_EDGE ( 'NONE', *, *, #124, .F. ) ;
#73 = CC_DESIGN_DATE_AND_TIME_ASSIGNMENT ( #118, #28, ( #57 ) ) ;
#74 = CC_DESIGN_APPROVAL ( #101, ( #57 ) ) ;
#75 = EDGE_LOOP ( 'NONE', ( #72, #160, #125, #63 ) ) ;
#76 = CARTESIAN_POINT ( 'NONE',  ( -0.8000000000000000444, 0.0000000000000000000, 0.0000000000000000000 ) ) ;
#77 = MECHANICAL_CONTEXT ( 'NONE', #46, 'mechanical' ) ;
#78 = EDGE_CURVE ( 'NONE', #167, #140, #55, .T. ) ;
#79 = ORIENTED_EDGE ( 'NONE', *, *, #78, .F. ) ;
#80 = PRODUCT_DEFINITION ( 'UNKNOWN', '', #58, #70 ) ;
#81 = APPROVAL_PERSON_ORGANIZATION ( #12, #35, #155 ) ;
#82 = CIRCLE ( 'NONE', #151, 10.00000000000000000 ) ;
#83 = CARTESIAN_POINT ( 'NONE',  ( -0.8000000000000000444, 0.0000000000000000000, 0.0000000000000000000 ) ) ;
#84 = DATE_AND_TIME ( #98, #31 ) ;
#85 = CC_DESIGN_SECURITY_CLASSIFICATION ( #57, ( #58 ) ) ;
#86 = CARTESIAN_POINT ( 'NONE',  ( 0.8000000000000000444, 0.0000000000000000000, 0.0000000000000000000 ) ) ;
#87 =( NAMED_UNIT ( * ) PLANE_ANGLE_UNIT ( ) SI_UNIT ( $, .RADIAN. ) );
#88 = LINE ( 'NONE', #113, #103 ) ;
#89 = CC_DESIGN_APPROVAL ( #35, ( #58 ) ) ;
#90 = CALENDAR_DATE ( 2019, 1, 11 ) ;
#91 = AXIS2_PLACEMENT_3D ( 'NONE', #116, #138, #59 ) ;
#92 = ORIENTED_EDGE ( 'NONE', *, *, #115, .F. ) ;
#93 = CARTESIAN_POINT ( 'NONE',  ( 0.8000000000000000444, 0.0000000000000000000, 0.0000000000000000000 ) ) ;
#94 = CARTESIAN_POINT ( 'NONE',  ( -0.8000000000000000444, 1.224646799147353256E-15, -10.00000000000000000 ) ) ;
#95 = EDGE_CURVE ( 'NONE', #167, #19, #133, .T. ) ;
#96 = LOCAL_TIME ( 10, 39, 48.00000000000000000, #52 ) ;
#97 = DATE_AND_TIME ( #51, #53 ) ;
#98 = CALENDAR_DATE ( 2019, 1, 11 ) ;
#99 = FACE_OUTER_BOUND ( 'NONE', #121, .T. ) ;
#100 = EDGE_CURVE ( 'NONE', #3, #140, #48, .T. ) ;
#101 = APPROVAL ( #43, 'UNSPECIFIED' ) ;
#102 = PERSON_AND_ORGANIZATION ( #150, #127 ) ;
#103 = VECTOR ( 'NONE', #148, 1000.000000000000000 ) ;
#104 = DIRECTION ( 'NONE',  ( 0.0000000000000000000, 0.0000000000000000000, -1.000000000000000000 ) ) ;
#105 = CARTESIAN_POINT ( 'NONE',  ( 0.8000000000000000444, 1.224646799147353256E-15, -10.00000000000000000 ) ) ;
#106 = APPROVAL_STATUS ( 'not_yet_approved' ) ;
#107 = APPROVAL_STATUS ( 'not_yet_approved' ) ;
#108 = DATE_AND_TIME ( #173, #45 ) ;
#109 = AXIS2_PLACEMENT_3D ( 'NONE', #83, #36, #137 ) ;
#110 = UNCERTAINTY_MEASURE_WITH_UNIT (LENGTH_MEASURE( 1.000000000000000082E-05 ), #163, 'distance_accuracy_value', 'NONE');
#111 = CYLINDRICAL_SURFACE ( 'NONE', #91, 10.00000000000000000 ) ;
#112 = ADVANCED_FACE ( 'NONE', ( #175 ), #11, .T. ) ;
#113 = CARTESIAN_POINT ( 'NONE',  ( 0.8000000000000000444, 1.224646799147353256E-15, -10.00000000000000000 ) ) ;
#114 = COORDINATED_UNIVERSAL_TIME_OFFSET ( 5, 0, .BEHIND. ) ;
#115 = EDGE_CURVE ( 'NONE', #19, #167, #145, .T. ) ;
#116 = CARTESIAN_POINT ( 'NONE',  ( 0.8000000000000000444, 0.0000000000000000000, 0.0000000000000000000 ) ) ;
#117 = COORDINATED_UNIVERSAL_TIME_OFFSET ( 5, 0, .BEHIND. ) ;
#118 = DATE_AND_TIME ( #90, #96 ) ;
#119 = PRODUCT ( 'Web Model 12452_12452', 'Web Model 12452_12452', '', ( #77 ) ) ;
#120 = CARTESIAN_POINT ( 'NONE',  ( 0.8000000000000000444, 0.0000000000000000000, 0.0000000000000000000 ) ) ;
#121 = EDGE_LOOP ( 'NONE', ( #16, #34 ) ) ;
#122 = PERSON_AND_ORGANIZATION_ROLE ( 'classification_officer' ) ;
#123 = DIRECTION ( 'NONE',  ( 0.0000000000000000000, 0.0000000000000000000, -1.000000000000000000 ) ) ;
#124 = EDGE_CURVE ( 'NONE', #19, #3, #88, .T. ) ;
#125 = ORIENTED_EDGE ( 'NONE', *, *, #78, .T. ) ;
#126 = APPROVAL_DATE_TIME ( #38, #101 ) ;
#127 = ORGANIZATION ( 'UNSPECIFIED', 'UNSPECIFIED', '' ) ;
#128 = FACE_OUTER_BOUND ( 'NONE', #64, .T. ) ;
#129 = DIRECTION ( 'NONE',  ( 1.000000000000000000, 0.0000000000000000000, 0.0000000000000000000 ) ) ;
#130 = PERSON_AND_ORGANIZATION ( #150, #127 ) ;
#131 = PERSON_AND_ORGANIZATION_ROLE ( 'design_supplier' ) ;
#132 = PERSON_AND_ORGANIZATION_ROLE ( 'creator' ) ;
#133 = CIRCLE ( 'NONE', #159, 10.00000000000000000 ) ;
#134 = ORIENTED_EDGE ( 'NONE', *, *, #95, .T. ) ;
#135 = VECTOR ( 'NONE', #153, 1000.000000000000000 ) ;
#136 = ORIENTED_EDGE ( 'NONE', *, *, #115, .T. ) ;
#137 = DIRECTION ( 'NONE',  ( 0.0000000000000000000, 0.0000000000000000000, -1.000000000000000000 ) ) ;
#138 = DIRECTION ( 'NONE',  ( -1.000000000000000000, -0.0000000000000000000, -0.0000000000000000000 ) ) ;
#139 = ORIENTED_EDGE ( 'NONE', *, *, #100, .T. ) ;
#140 = VERTEX_POINT ( 'NONE', #68 ) ;
#141 = PERSON_AND_ORGANIZATION_ROLE ( 'creator' ) ;
#142 = PERSON_AND_ORGANIZATION_ROLE ( 'design_owner' ) ;
#143 = FACE_OUTER_BOUND ( 'NONE', #61, .T. ) ;
#144 = AXIS2_PLACEMENT_3D ( 'NONE', #161, #1, #37 ) ;
#145 = CIRCLE ( 'NONE', #30, 10.00000000000000000 ) ;
#146 = ADVANCED_FACE ( 'NONE', ( #143 ), #111, .T. ) ;
#147 =( GEOMETRIC_REPRESENTATION_CONTEXT ( 3 ) GLOBAL_UNCERTAINTY_ASSIGNED_CONTEXT ( ( #110 ) ) GLOBAL_UNIT_ASSIGNED_CONTEXT ( ( #163, #87, #56 ) ) REPRESENTATION_CONTEXT ( 'NONE', 'WORKASPACE' ) );
#148 = DIRECTION ( 'NONE',  ( -1.000000000000000000, -0.0000000000000000000, -0.0000000000000000000 ) ) ;
#149 = SHAPE_DEFINITION_REPRESENTATION ( #8, #162 ) ;
#150 = PERSON ( 'UNSPECIFIED', 'UNSPECIFIED', 'UNSPECIFIED', ('UNSPECIFIED'), ('UNSPECIFIED'), ('UNSPECIFIED') ) ;
#151 = AXIS2_PLACEMENT_3D ( 'NONE', #76, #6, #123 ) ;
#152 = APPLICATION_CONTEXT ( 'configuration controlled 3d designs of mechanical parts and assemblies' ) ;
#153 = DIRECTION ( 'NONE',  ( -1.000000000000000000, -0.0000000000000000000, -0.0000000000000000000 ) ) ;
#154 = APPROVAL_ROLE ( '' ) ;
#155 = APPROVAL_ROLE ( '' ) ;
#156 = CC_DESIGN_PERSON_AND_ORGANIZATION_ASSIGNMENT ( #32, #132, ( #80 ) ) ;
#157 = AXIS2_PLACEMENT_3D ( 'NONE', #120, #40, #104 ) ;
#158 = APPROVAL_DATE_TIME ( #84, #35 ) ;
#159 = AXIS2_PLACEMENT_3D ( 'NONE', #41, #166, #23 ) ;
#160 = ORIENTED_EDGE ( 'NONE', *, *, #95, .F. ) ;
#161 = CARTESIAN_POINT ( 'NONE',  ( 0.0000000000000000000, 0.0000000000000000000, 0.0000000000000000000 ) ) ;
#162 = ADVANCED_BREP_SHAPE_REPRESENTATION ( 'Web Model 12452_12452', ( #25, #144 ), #147 ) ;
#163 =( LENGTH_UNIT ( ) NAMED_UNIT ( * ) SI_UNIT ( .MILLI., .METRE. ) );
#164 = ADVANCED_FACE ( 'NONE', ( #99 ), #71, .F. ) ;
#165 = CC_DESIGN_PERSON_AND_ORGANIZATION_ASSIGNMENT ( #9, #131, ( #58 ) ) ;
#166 = DIRECTION ( 'NONE',  ( 1.000000000000000000, 0.0000000000000000000, 0.0000000000000000000 ) ) ;
#167 = VERTEX_POINT ( 'NONE', #47 ) ;
#168 = APPROVAL_DATE_TIME ( #108, #22 ) ;
#169 = CARTESIAN_POINT ( 'NONE',  ( 0.8000000000000000444, 0.0000000000000000000, 10.00000000000000000 ) ) ;
#170 = DIRECTION ( 'NONE',  ( 0.0000000000000000000, 0.0000000000000000000, -1.000000000000000000 ) ) ;
#171 = APPLICATION_PROTOCOL_DEFINITION ( 'international standard', 'config_control_design', 1994, #152 ) ;
#172 = CLOSED_SHELL ( 'NONE', ( #146, #112, #13, #164 ) ) ;
#173 = CALENDAR_DATE ( 2019, 1, 11 ) ;
#174 = AXIS2_PLACEMENT_3D ( 'NONE', #93, #27, #10 ) ;
#175 = FACE_OUTER_BOUND ( 'NONE', #75, .T. ) ;
ENDSEC;
END-ISO-10303-21;
