ISO-10303-21;
HEADER;
FILE_DESCRIPTION (( 'STEP AP203' ),
    '1' );
FILE_NAME ('4937-E0W.STEP',
    '2015-11-16T21:55:01',
    ( 'admin' ),
    ( '' ),
    'SwSTEP 2.0',
    'SolidWorks 2014',
    '' );
FILE_SCHEMA (( 'CONFIG_CONTROL_DESIGN' ));
ENDSEC;

DATA;
#1 = DATE_AND_TIME ( #275, #124 ) ;
#2 = PERSON_AND_ORGANIZATION_ROLE ( 'design_supplier' ) ;
#3 = DATE_AND_TIME ( #318, #292 ) ;
#4 = DIRECTION ( 'NONE',  ( -1.000000000000000000, -1.836970198721029900E-016, -0.0000000000000000000 ) ) ;
#5 = DIRECTION ( 'NONE',  ( -1.878145495644181100E-016, 1.000000000000000000, 0.0000000000000000000 ) ) ;
#6 = DIRECTION ( 'NONE',  ( -1.000000000000000000, -1.836970198721030200E-016, -0.0000000000000000000 ) ) ;
#7 = ORIENTED_EDGE ( 'NONE', *, *, #261, .F. ) ;
#8 = CC_DESIGN_SECURITY_CLASSIFICATION ( #257, ( #176 ) ) ;
#9 = ADVANCED_FACE ( 'NONE', ( #218 ), #216, .T. ) ;
#10 = CARTESIAN_POINT ( 'NONE',  ( 0.1502813792531768300, 3.845449071612332600E-017, 0.0000000000000000000 ) ) ;
#11 = CARTESIAN_POINT ( 'NONE',  ( -0.05905511811023612900, -0.4999999999999998300, 0.0000000000000000000 ) ) ;
#12 = DIRECTION ( 'NONE',  ( 1.836970198721029900E-016, -1.000000000000000000, 0.0000000000000000000 ) ) ;
#13 = FACE_OUTER_BOUND ( 'NONE', #136, .T. ) ;
#14 = CARTESIAN_POINT ( 'NONE',  ( -0.04050149380182511300, 3.408245493281729100E-018, 0.0000000000000000000 ) ) ;
#15 = CARTESIAN_POINT ( 'NONE',  ( 0.0000000000000000000, 0.0000000000000000000, 0.0000000000000000000 ) ) ;
#16 = ORIENTED_EDGE ( 'NONE', *, *, #145, .F. ) ;
#17 = ORIENTED_EDGE ( 'NONE', *, *, #135, .F. ) ;
#18 = AXIS2_PLACEMENT_3D ( 'NONE', #39, #163, #179 ) ;
#19 = CARTESIAN_POINT ( 'NONE',  ( -0.04050149380182511300, 3.408245493281729100E-018, 0.0000000000000000000 ) ) ;
#20 = VECTOR ( 'NONE', #233, 39.37007874015748900 ) ;
#21 = CARTESIAN_POINT ( 'NONE',  ( 1.437007874015748400, 5.279481279788787700E-016, -1.843321036715421300E-030 ) ) ;
#22 = CIRCLE ( 'NONE', #237, 0.4999999999999999400 ) ;
#23 = EDGE_CURVE ( 'NONE', #33, #45, #108, .T. ) ;
#24 = PRODUCT_RELATED_PRODUCT_CATEGORY ( 'detail', '', ( #100 ) ) ;
#25 = DIRECTION ( 'NONE',  ( 1.731506571600154900E-016, -1.000000000000000000, 0.0000000000000000000 ) ) ;
#26 = ORIENTED_EDGE ( 'NONE', *, *, #174, .F. ) ;
#27 = APPROVAL_STATUS ( 'not_yet_approved' ) ;
#28 = CARTESIAN_POINT ( 'NONE',  ( 0.1502813792531768300, 3.845449071612332600E-017, 0.0000000000000000000 ) ) ;
#29 = CARTESIAN_POINT ( 'NONE',  ( -0.03354178138857161200, -0.4999999999999999400, 6.123233995736764800E-017 ) ) ;
#30 = PERSON_AND_ORGANIZATION ( #320, #47 ) ;
#31 = LINE ( 'NONE', #323, #196 ) ;
#32 = CARTESIAN_POINT ( 'NONE',  ( -0.03354178138857170900, 4.686723922763261700E-018, 0.0000000000000000000 ) ) ;
#33 = VERTEX_POINT ( 'NONE', #223 ) ;
#34 = EDGE_CURVE ( 'NONE', #303, #33, #260, .T. ) ;
#35 = EDGE_CURVE ( 'NONE', #270, #303, #235, .T. ) ;
#36 = ADVANCED_FACE ( 'NONE', ( #210 ), #255, .T. ) ;
#37 = VERTEX_POINT ( 'NONE', #197 ) ;
#38 = DIRECTION ( 'NONE',  ( 2.249639673992786700E-032, -1.224646799147353200E-016, 1.000000000000000000 ) ) ;
#39 = CARTESIAN_POINT ( 'NONE',  ( 5.846405286725717700, 1.084202172485504400E-015, 0.0000000000000000000 ) ) ;
#40 = ORIENTED_EDGE ( 'NONE', *, *, #171, .T. ) ;
#41 = DIRECTION ( 'NONE',  ( -1.000000000000000000, -1.836970198721029900E-016, -0.0000000000000000000 ) ) ;
#42 = DIRECTION ( 'NONE',  ( -1.000000000000000000, -1.836970198721029900E-016, -0.0000000000000000000 ) ) ;
#43 = EDGE_CURVE ( 'NONE', #89, #303, #289, .T. ) ;
#44 = EDGE_CURVE ( 'NONE', #270, #37, #142, .T. ) ;
#45 = VERTEX_POINT ( 'NONE', #109 ) ;
#46 = CLOSED_SHELL ( 'NONE', ( #317, #36, #166, #217, #9, #119, #143, #94, #238, #266 ) ) ;
#47 = ORGANIZATION ( 'UNSPECIFIED', 'UNSPECIFIED', '' ) ;
#48 = FACE_OUTER_BOUND ( 'NONE', #85, .T. ) ;
#49 = AXIS2_PLACEMENT_3D ( 'NONE', #15, #75, #180 ) ;
#50 = AXIS2_PLACEMENT_3D ( 'NONE', #159, #308, #25 ) ;
#51 = APPROVAL_PERSON_ORGANIZATION ( #73, #191, #324 ) ;
#52 = ORIENTED_EDGE ( 'NONE', *, *, #240, .T. ) ;
#53 = DIRECTION ( 'NONE',  ( 1.000000000000000000, 1.836970198721029900E-016, 0.0000000000000000000 ) ) ;
#54 =( NAMED_UNIT ( * ) SI_UNIT ( $, .STERADIAN. ) SOLID_ANGLE_UNIT ( ) );
#55 = CARTESIAN_POINT ( 'NONE',  ( 5.846405286725717700, -0.02464055710182234300, 0.0000000000000000000 ) ) ;
#56 = ORIENTED_EDGE ( 'NONE', *, *, #277, .F. ) ;
#57 = FACE_OUTER_BOUND ( 'NONE', #247, .T. ) ;
#58 = CARTESIAN_POINT ( 'NONE',  ( -0.04050149380182566100, -0.4930402875867499500, 0.0000000000000000000 ) ) ;
#59 = CIRCLE ( 'NONE', #203, 1.377952755905512000 ) ;
#60 = EDGE_CURVE ( 'NONE', #45, #33, #22, .T. ) ;
#61 = DIRECTION ( 'NONE',  ( 1.878145495644181100E-016, -1.000000000000000000, 0.0000000000000000000 ) ) ;
#62 = EDGE_LOOP ( 'NONE', ( #307, #243, #78, #215 ) ) ;
#63 = DIRECTION ( 'NONE',  ( 1.731506571600154900E-016, -1.000000000000000000, 0.0000000000000000000 ) ) ;
#64 = CARTESIAN_POINT ( 'NONE',  ( -0.04050149380182575100, 0.4930402875867500000, 6.038002100438038300E-017 ) ) ;
#65 = DIRECTION ( 'NONE',  ( -0.7071067811865440200, -0.7071067811865511300, 0.0000000000000000000 ) ) ;
#66 = DIRECTION ( 'NONE',  ( -1.000000000000000000, -1.836970198721029900E-016, -0.0000000000000000000 ) ) ;
#67 = AXIS2_PLACEMENT_3D ( 'NONE', #322, #239, #128 ) ;
#68 = CARTESIAN_POINT ( 'NONE',  ( 0.1502813792531769200, -0.4930402875867466700, 0.0000000000000000000 ) ) ;
#69 = EDGE_CURVE ( 'NONE', #129, #154, #93, .T. ) ;
#70 = CARTESIAN_POINT ( 'NONE',  ( 0.1502813792531769200, -0.4930402875867466700, 0.0000000000000000000 ) ) ;
#71 = DIRECTION ( 'NONE',  ( -1.282749433769087900E-030, 6.982962677686267500E-015, 1.000000000000000000 ) ) ;
#72 = CC_DESIGN_PERSON_AND_ORGANIZATION_ASSIGNMENT ( #208, #157, ( #100 ) ) ;
#73 = PERSON_AND_ORGANIZATION ( #320, #47 ) ;
#74 = ORIENTED_EDGE ( 'NONE', *, *, #44, .F. ) ;
#75 = DIRECTION ( 'NONE',  ( 0.0000000000000000000, 0.0000000000000000000, 1.000000000000000000 ) ) ;
#76 = CARTESIAN_POINT ( 'NONE',  ( 0.1502813792531767500, 0.4930402875867467800, 6.080618048087382400E-017 ) ) ;
#77 = ADVANCED_BREP_SHAPE_REPRESENTATION ( '4937-E0W', ( #246, #49 ), #296 ) ;
#78 = ORIENTED_EDGE ( 'NONE', *, *, #43, .F. ) ;
#79 = VECTOR ( 'NONE', #65, 39.37007874015748100 ) ;
#80 = CARTESIAN_POINT ( 'NONE',  ( 0.1502813792531768300, 3.845449071612332600E-017, 0.0000000000000000000 ) ) ;
#81 = CARTESIAN_POINT ( 'NONE',  ( 0.1502813792531767500, 0.4930402875867467800, 6.038002100437998800E-017 ) ) ;
#82 = DIRECTION ( 'NONE',  ( 0.7071067811865514600, 0.7071067811865433500, 0.0000000000000000000 ) ) ;
#83 = DIRECTION ( 'NONE',  ( 1.707404996040165000E-016, -1.000000000000000000, 0.0000000000000000000 ) ) ;
#84 = DIRECTION ( 'NONE',  ( 1.904657228760170800E-016, -1.000000000000000000, 0.0000000000000000000 ) ) ;
#85 = EDGE_LOOP ( 'NONE', ( #330, #212, #52, #273 ) ) ;
#86 = DIRECTION ( 'NONE',  ( 1.904657228760170800E-016, -1.000000000000000000, 0.0000000000000000000 ) ) ;
#87 = PERSON_AND_ORGANIZATION ( #320, #47 ) ;
#88 = AXIS2_PLACEMENT_3D ( 'NONE', #316, #53, #117 ) ;
#89 = VERTEX_POINT ( 'NONE', #200 ) ;
#90 = PERSON_AND_ORGANIZATION_ROLE ( 'creator' ) ;
#91 = VECTOR ( 'NONE', #6, 39.37007874015748100 ) ;
#92 = PRODUCT_DEFINITION ( 'UNKNOWN', '', #176, #95 ) ;
#93 = CIRCLE ( 'NONE', #209, 5.905511811023623100 ) ;
#94 = ADVANCED_FACE ( 'NONE', ( #13 ), #263, .T. ) ;
#95 = DESIGN_CONTEXT ( 'detailed design', #211, 'design' ) ;
#96 = CARTESIAN_POINT ( 'NONE',  ( -0.05905511811023622700, 0.0000000000000000000, 0.0000000000000000000 ) ) ;
#97 = DIRECTION ( 'NONE',  ( 1.982541115402065100E-016, -1.000000000000000000, 6.982962677686267500E-015 ) ) ;
#98 = AXIS2_PLACEMENT_3D ( 'NONE', #96, #204, #286 ) ;
#99 = LINE ( 'NONE', #29, #20 ) ;
#100 = PRODUCT ( '4937-E0W', '4937-E0W', '', ( #306 ) ) ;
#101 = DATE_AND_TIME ( #112, #168 ) ;
#102 = EDGE_LOOP ( 'NONE', ( #17, #181, #309, #114 ) ) ;
#103 = AXIS2_PLACEMENT_3D ( 'NONE', #113, #252, #61 ) ;
#104 = AXIS2_PLACEMENT_3D ( 'NONE', #28, #147, #294 ) ;
#105 = FACE_OUTER_BOUND ( 'NONE', #192, .T. ) ;
#106 = DIRECTION ( 'NONE',  ( 0.0000000000000000000, -1.000000000000000000, -1.224646799147353200E-016 ) ) ;
#107 = SPHERICAL_SURFACE ( 'NONE', #280, 1.377952755905512000 ) ;
#108 = CIRCLE ( 'NONE', #103, 0.4999999999999999400 ) ;
#109 = CARTESIAN_POINT ( 'NONE',  ( -0.03354178138857161200, -0.4999999999999999400, 6.123233995736764800E-017 ) ) ;
#110 = APPROVAL ( #27, 'UNSPECIFIED' ) ;
#111 =( CONVERSION_BASED_UNIT ( 'INCH', #195 ) LENGTH_UNIT ( ) NAMED_UNIT ( #268 ) );
#112 = CALENDAR_DATE ( 2015, 16, 11 ) ;
#113 = CARTESIAN_POINT ( 'NONE',  ( -0.03354178138857170900, 4.686723922763261700E-018, 0.0000000000000000000 ) ) ;
#114 = ORIENTED_EDGE ( 'NONE', *, *, #23, .T. ) ;
#115 = VECTOR ( 'NONE', #167, 39.37007874015748900 ) ;
#116 = UNCERTAINTY_MEASURE_WITH_UNIT (LENGTH_MEASURE( 1.000000000000000100E-005 ), #111, 'distance_accuracy_value', 'NONE');
#117 = DIRECTION ( 'NONE',  ( -1.878145495644181100E-016, 1.000000000000000000, 0.0000000000000000000 ) ) ;
#118 = ORIENTED_EDGE ( 'NONE', *, *, #34, .T. ) ;
#119 = ADVANCED_FACE ( 'NONE', ( #150 ), #328, .T. ) ;
#120 = ORIENTED_EDGE ( 'NONE', *, *, #228, .F. ) ;
#121 = CONICAL_SURFACE ( 'NONE', #185, 0.4999999999999999400, 0.7853981633974425100 ) ;
#122 = EDGE_CURVE ( 'NONE', #259, #129, #133, .T. ) ;
#123 = APPLICATION_PROTOCOL_DEFINITION ( 'international standard', 'config_control_design', 1994, #211 ) ;
#124 = LOCAL_TIME ( 16, 55, 1.000000000000000000, #267 ) ;
#125 = AXIS2_PLACEMENT_3D ( 'NONE', #301, #38, #106 ) ;
#126 = CC_DESIGN_APPROVAL ( #110, ( #92 ) ) ;
#127 = LINE ( 'NONE', #11, #91 ) ;
#128 = DIRECTION ( 'NONE',  ( 1.707404996040165000E-016, -1.000000000000000000, 0.0000000000000000000 ) ) ;
#129 = VERTEX_POINT ( 'NONE', #58 ) ;
#130 = CARTESIAN_POINT ( 'NONE',  ( -0.05905511811023622700, 0.0000000000000000000, 0.0000000000000000000 ) ) ;
#131 = DIRECTION ( 'NONE',  ( 1.878145495644181600E-016, -1.000000000000000000, 0.0000000000000000000 ) ) ;
#132 = APPROVAL_ROLE ( '' ) ;
#133 = CIRCLE ( 'NONE', #164, 0.4930402875867466200 ) ;
#134 = ORIENTED_EDGE ( 'NONE', *, *, #34, .F. ) ;
#135 = EDGE_CURVE ( 'NONE', #129, #45, #99, .T. ) ;
#136 = EDGE_LOOP ( 'NONE', ( #134, #141, #40, #224 ) ) ;
#137 = DIRECTION ( 'NONE',  ( 0.0000000000000000000, 0.0000000000000000000, -1.000000000000000000 ) ) ;
#138 = CIRCLE ( 'NONE', #50, 0.4930402875867467300 ) ;
#139 = AXIS2_PLACEMENT_3D ( 'NONE', #276, #41, #12 ) ;
#140 = CC_DESIGN_PERSON_AND_ORGANIZATION_ASSIGNMENT ( #178, #214, ( #92 ) ) ;
#141 = ORIENTED_EDGE ( 'NONE', *, *, #183, .T. ) ;
#142 = CIRCLE ( 'NONE', #177, 1.377952755905512000 ) ;
#143 = ADVANCED_FACE ( 'NONE', ( #213 ), #206, .T. ) ;
#144 = CALENDAR_DATE ( 2015, 16, 11 ) ;
#145 = EDGE_CURVE ( 'NONE', #173, #37, #59, .T. ) ;
#146 = ORIENTED_EDGE ( 'NONE', *, *, #44, .T. ) ;
#147 = DIRECTION ( 'NONE',  ( -1.000000000000000000, -1.836970198721029900E-016, -0.0000000000000000000 ) ) ;
#148 =( NAMED_UNIT ( * ) PLANE_ANGLE_UNIT ( ) SI_UNIT ( $, .RADIAN. ) );
#149 = DIRECTION ( 'NONE',  ( -1.000000000000000000, -1.836970198721029900E-016, -0.0000000000000000000 ) ) ;
#150 = FACE_OUTER_BOUND ( 'NONE', #193, .T. ) ;
#151 = APPROVAL_STATUS ( 'not_yet_approved' ) ;
#152 = APPROVAL_DATE_TIME ( #3, #305 ) ;
#153 = EDGE_CURVE ( 'NONE', #173, #270, #222, .T. ) ;
#154 = VERTEX_POINT ( 'NONE', #311 ) ;
#155 =( LENGTH_UNIT ( ) NAMED_UNIT ( * ) SI_UNIT ( $, .METRE. ) );
#156 = ORIENTED_EDGE ( 'NONE', *, *, #174, .T. ) ;
#157 = PERSON_AND_ORGANIZATION_ROLE ( 'design_owner' ) ;
#158 = CIRCLE ( 'NONE', #125, 5.905511811023623100 ) ;
#159 = CARTESIAN_POINT ( 'NONE',  ( 0.1502813792531768300, 3.845449071612332600E-017, 0.0000000000000000000 ) ) ;
#160 = CC_DESIGN_DATE_AND_TIME_ASSIGNMENT ( #101, #230, ( #92 ) ) ;
#161 = CARTESIAN_POINT ( 'NONE',  ( 0.1433216668399237000, 0.5000000000000000000, 6.123233995736766000E-017 ) ) ;
#162 = ORIENTED_EDGE ( 'NONE', *, *, #153, .F. ) ;
#163 = DIRECTION ( 'NONE',  ( -1.000000000000000000, -1.836970198721029900E-016, -0.0000000000000000000 ) ) ;
#164 = AXIS2_PLACEMENT_3D ( 'NONE', #14, #285, #84 ) ;
#165 = CYLINDRICAL_SURFACE ( 'NONE', #258, 0.4999999999999998300 ) ;
#166 = ADVANCED_FACE ( 'NONE', ( #288 ), #165, .T. ) ;
#167 = DIRECTION ( 'NONE',  ( -0.7071067811865441300, 0.7071067811865507900, 8.659560562354974800E-017 ) ) ;
#168 = LOCAL_TIME ( 16, 55, 1.000000000000000000, #199 ) ;
#169 = EDGE_LOOP ( 'NONE', ( #315, #118, #202, #293 ) ) ;
#170 = SECURITY_CLASSIFICATION_LEVEL ( 'unclassified' ) ;
#171 = EDGE_CURVE ( 'NONE', #89, #45, #127, .T. ) ;
#172 = CARTESIAN_POINT ( 'NONE',  ( 1.437007874015748400, 5.279481279788787700E-016, -1.843321036715421300E-030 ) ) ;
#173 = VERTEX_POINT ( 'NONE', #68 ) ;
#174 = EDGE_CURVE ( 'NONE', #129, #259, #198, .T. ) ;
#175 = CONICAL_SURFACE ( 'NONE', #201, 0.4930402875867467300, 0.7853981633974531600 ) ;
#176 = PRODUCT_DEFINITION_FORMATION_WITH_SPECIFIED_SOURCE ( 'ANY', '', #100, .NOT_KNOWN. ) ;
#177 = AXIS2_PLACEMENT_3D ( 'NONE', #172, #295, #221 ) ;
#178 = PERSON_AND_ORGANIZATION ( #320, #47 ) ;
#179 = DIRECTION ( 'NONE',  ( 1.836970198721029900E-016, -1.000000000000000000, 0.0000000000000000000 ) ) ;
#180 = DIRECTION ( 'NONE',  ( 1.000000000000000000, 0.0000000000000000000, 0.0000000000000000000 ) ) ;
#181 = ORIENTED_EDGE ( 'NONE', *, *, #122, .F. ) ;
#182 = CARTESIAN_POINT ( 'NONE',  ( 1.437007874015748400, 5.279481279788787700E-016, -1.843321036715421300E-030 ) ) ;
#183 = EDGE_CURVE ( 'NONE', #303, #89, #262, .T. ) ;
#184 = ORIENTED_EDGE ( 'NONE', *, *, #122, .T. ) ;
#185 = AXIS2_PLACEMENT_3D ( 'NONE', #313, #205, #5 ) ;
#186 = DIRECTION ( 'NONE',  ( 1.731506571600154900E-016, -1.000000000000000000, 0.0000000000000000000 ) ) ;
#187 = APPROVAL_PERSON_ORGANIZATION ( #30, #110, #190 ) ;
#188 = DATE_TIME_ROLE ( 'classification_date' ) ;
#189 = DIRECTION ( 'NONE',  ( -1.282749433769087900E-030, 6.982962677686267500E-015, 1.000000000000000000 ) ) ;
#190 = APPROVAL_ROLE ( '' ) ;
#191 = APPROVAL ( #283, 'UNSPECIFIED' ) ;
#192 = EDGE_LOOP ( 'NONE', ( #120, #146, #16 ) ) ;
#193 = EDGE_LOOP ( 'NONE', ( #56, #184, #326 ) ) ;
#194 = APPROVAL_PERSON_ORGANIZATION ( #87, #305, #132 ) ;
#195 = LENGTH_MEASURE_WITH_UNIT ( LENGTH_MEASURE( 0.02539999999999999900 ), #155 );
#196 = VECTOR ( 'NONE', #82, 39.37007874015748900 ) ;
#197 = CARTESIAN_POINT ( 'NONE',  ( 0.05905511811023627500, 1.904470415996868900E-016, -1.254131664249305100E-030 ) ) ;
#198 = CIRCLE ( 'NONE', #269, 0.4930402875867466200 ) ;
#199 = COORDINATED_UNIVERSAL_TIME_OFFSET ( 5, 0, .BEHIND. ) ;
#200 = CARTESIAN_POINT ( 'NONE',  ( 0.1433216668399238700, -0.4999999999999997800, 0.0000000000000000000 ) ) ;
#201 = AXIS2_PLACEMENT_3D ( 'NONE', #10, #66, #63 ) ;
#202 = ORIENTED_EDGE ( 'NONE', *, *, #60, .F. ) ;
#203 = AXIS2_PLACEMENT_3D ( 'NONE', #182, #272, #219 ) ;
#204 = DIRECTION ( 'NONE',  ( -1.000000000000000000, -1.836970198721029900E-016, -0.0000000000000000000 ) ) ;
#205 = DIRECTION ( 'NONE',  ( 1.000000000000000000, 1.836970198721029900E-016, 0.0000000000000000000 ) ) ;
#206 = CONICAL_SURFACE ( 'NONE', #88, 0.4999999999999999400, 0.7853981633974425100 ) ;
#207 = CC_DESIGN_APPROVAL ( #191, ( #176 ) ) ;
#208 = PERSON_AND_ORGANIZATION ( #320, #47 ) ;
#209 = AXIS2_PLACEMENT_3D ( 'NONE', #55, #137, #314 ) ;
#210 = FACE_OUTER_BOUND ( 'NONE', #62, .T. ) ;
#211 = APPLICATION_CONTEXT ( 'configuration controlled 3d designs of mechanical parts and assemblies' ) ;
#212 = ORIENTED_EDGE ( 'NONE', *, *, #228, .T. ) ;
#213 = FACE_OUTER_BOUND ( 'NONE', #102, .T. ) ;
#214 = PERSON_AND_ORGANIZATION_ROLE ( 'creator' ) ;
#215 = ORIENTED_EDGE ( 'NONE', *, *, #240, .F. ) ;
#216 = TOROIDAL_SURFACE ( 'NONE', #139, 0.02464055710182342500, 5.905511811023623100 ) ;
#217 = ADVANCED_FACE ( 'NONE', ( #234 ), #121, .T. ) ;
#218 = FACE_OUTER_BOUND ( 'NONE', #284, .T. ) ;
#219 = DIRECTION ( 'NONE',  ( 0.0000000000000000000, 1.000000000000000000, -6.982962677686267500E-015 ) ) ;
#220 = DIRECTION ( 'NONE',  ( -1.000000000000000000, -1.836970198721029900E-016, -0.0000000000000000000 ) ) ;
#221 = DIRECTION ( 'NONE',  ( 0.0000000000000000000, -1.000000000000000000, 6.860497997771531600E-015 ) ) ;
#222 = CIRCLE ( 'NONE', #279, 0.4930402875867467300 ) ;
#223 = CARTESIAN_POINT ( 'NONE',  ( -0.03354178138857179900, 0.4999999999999999400, 0.0000000000000000000 ) ) ;
#224 = ORIENTED_EDGE ( 'NONE', *, *, #23, .F. ) ;
#225 = CC_DESIGN_PERSON_AND_ORGANIZATION_ASSIGNMENT ( #290, #90, ( #176 ) ) ;
#226 = PERSON_AND_ORGANIZATION ( #320, #47 ) ;
#227 = EDGE_LOOP ( 'NONE', ( #26, #327, #264, #7 ) ) ;
#228 = EDGE_CURVE ( 'NONE', #270, #173, #138, .T. ) ;
#229 = ORIENTED_EDGE ( 'NONE', *, *, #69, .F. ) ;
#230 = DATE_TIME_ROLE ( 'creation_date' ) ;
#231 = APPROVAL_DATE_TIME ( #329, #110 ) ;
#232 = CARTESIAN_POINT ( 'NONE',  ( 0.1433216668399237800, 3.717601228664185500E-017, 0.0000000000000000000 ) ) ;
#233 = DIRECTION ( 'NONE',  ( 0.7071067811865516800, -0.7071067811865432400, 8.659560562354882300E-017 ) ) ;
#234 = FACE_OUTER_BOUND ( 'NONE', #227, .T. ) ;
#235 = LINE ( 'NONE', #81, #115 ) ;
#236 = CC_DESIGN_PERSON_AND_ORGANIZATION_ASSIGNMENT ( #244, #2, ( #176 ) ) ;
#237 = AXIS2_PLACEMENT_3D ( 'NONE', #32, #254, #282 ) ;
#238 = ADVANCED_FACE ( 'NONE', ( #48 ), #175, .T. ) ;
#239 = DIRECTION ( 'NONE',  ( -1.000000000000000000, -1.836970198721029900E-016, -0.0000000000000000000 ) ) ;
#240 = EDGE_CURVE ( 'NONE', #173, #89, #310, .T. ) ;
#241 = APPLICATION_CONTEXT ( 'configuration controlled 3d designs of mechanical parts and assemblies' ) ;
#242 = PRODUCT_DEFINITION_SHAPE ( 'NONE', 'NONE',  #92 ) ;
#243 = ORIENTED_EDGE ( 'NONE', *, *, #35, .T. ) ;
#244 = PERSON_AND_ORGANIZATION ( #320, #47 ) ;
#245 = APPLICATION_PROTOCOL_DEFINITION ( 'international standard', 'config_control_design', 1994, #241 ) ;
#246 = MANIFOLD_SOLID_BREP ( '4937-001-1-solid1', #46 ) ;
#247 = EDGE_LOOP ( 'NONE', ( #74, #162, #297 ) ) ;
#248 = AXIS2_PLACEMENT_3D ( 'NONE', #232, #42, #83 ) ;
#249 = DATE_AND_TIME ( #144, #253 ) ;
#250 = SPHERICAL_SURFACE ( 'NONE', #312, 1.377952755905512000 ) ;
#251 = SHAPE_DEFINITION_REPRESENTATION ( #242, #77 ) ;
#252 = DIRECTION ( 'NONE',  ( -1.000000000000000000, -1.836970198721029900E-016, -0.0000000000000000000 ) ) ;
#253 = LOCAL_TIME ( 16, 55, 1.000000000000000000, #298 ) ;
#254 = DIRECTION ( 'NONE',  ( -1.000000000000000000, -1.836970198721029900E-016, -0.0000000000000000000 ) ) ;
#255 = CONICAL_SURFACE ( 'NONE', #104, 0.4930402875867467300, 0.7853981633974531600 ) ;
#256 = CALENDAR_DATE ( 2015, 16, 11 ) ;
#257 = SECURITY_CLASSIFICATION ( '', '', #170 ) ;
#258 = AXIS2_PLACEMENT_3D ( 'NONE', #130, #149, #131 ) ;
#259 = VERTEX_POINT ( 'NONE', #64 ) ;
#260 = LINE ( 'NONE', #302, #304 ) ;
#261 = EDGE_CURVE ( 'NONE', #259, #33, #31, .T. ) ;
#262 = CIRCLE ( 'NONE', #248, 0.4999999999999998300 ) ;
#263 = CYLINDRICAL_SURFACE ( 'NONE', #98, 0.4999999999999998300 ) ;
#264 = ORIENTED_EDGE ( 'NONE', *, *, #60, .T. ) ;
#265 = DIRECTION ( 'NONE',  ( -1.000000000000000000, -1.836970198721030200E-016, -0.0000000000000000000 ) ) ;
#266 = ADVANCED_FACE ( 'NONE', ( #57 ), #107, .F. ) ;
#267 = COORDINATED_UNIVERSAL_TIME_OFFSET ( 5, 0, .BEHIND. ) ;
#268 = DIMENSIONAL_EXPONENTS ( 1.000000000000000000, 0.0000000000000000000, 0.0000000000000000000, 0.0000000000000000000, 0.0000000000000000000, 0.0000000000000000000, 0.0000000000000000000 ) ;
#269 = AXIS2_PLACEMENT_3D ( 'NONE', #19, #4, #86 ) ;
#270 = VERTEX_POINT ( 'NONE', #76 ) ;
#271 = DIRECTION ( 'NONE',  ( 1.982541115402065100E-016, -1.000000000000000000, 6.982962677686267500E-015 ) ) ;
#272 = DIRECTION ( 'NONE',  ( 1.282749433769087600E-030, -6.982962677686266700E-015, -1.000000000000000000 ) ) ;
#273 = ORIENTED_EDGE ( 'NONE', *, *, #183, .F. ) ;
#274 = CC_DESIGN_PERSON_AND_ORGANIZATION_ASSIGNMENT ( #226, #278, ( #257 ) ) ;
#275 = CALENDAR_DATE ( 2015, 16, 11 ) ;
#276 = CARTESIAN_POINT ( 'NONE',  ( 5.846405286725717700, 1.084202172485504400E-015, 0.0000000000000000000 ) ) ;
#277 = EDGE_CURVE ( 'NONE', #259, #154, #158, .T. ) ;
#278 = PERSON_AND_ORGANIZATION_ROLE ( 'classification_officer' ) ;
#279 = AXIS2_PLACEMENT_3D ( 'NONE', #80, #220, #186 ) ;
#280 = AXIS2_PLACEMENT_3D ( 'NONE', #21, #71, #97 ) ;
#281 = APPROVAL_DATE_TIME ( #1, #191 ) ;
#282 = DIRECTION ( 'NONE',  ( 1.878145495644181100E-016, -1.000000000000000000, 0.0000000000000000000 ) ) ;
#283 = APPROVAL_STATUS ( 'not_yet_approved' ) ;
#284 = EDGE_LOOP ( 'NONE', ( #156, #319, #229 ) ) ;
#285 = DIRECTION ( 'NONE',  ( -1.000000000000000000, -1.836970198721029900E-016, -0.0000000000000000000 ) ) ;
#286 = DIRECTION ( 'NONE',  ( 1.878145495644181600E-016, -1.000000000000000000, 0.0000000000000000000 ) ) ;
#287 = CARTESIAN_POINT ( 'NONE',  ( 1.437007874015748400, 5.279481279788787700E-016, -1.843321036715421300E-030 ) ) ;
#288 = FACE_OUTER_BOUND ( 'NONE', #169, .T. ) ;
#289 = CIRCLE ( 'NONE', #67, 0.4999999999999998300 ) ;
#290 = PERSON_AND_ORGANIZATION ( #320, #47 ) ;
#291 = CC_DESIGN_DATE_AND_TIME_ASSIGNMENT ( #249, #188, ( #257 ) ) ;
#292 = LOCAL_TIME ( 16, 55, 1.000000000000000000, #299 ) ;
#293 = ORIENTED_EDGE ( 'NONE', *, *, #171, .F. ) ;
#294 = DIRECTION ( 'NONE',  ( 1.731506571600154900E-016, -1.000000000000000000, 0.0000000000000000000 ) ) ;
#295 = DIRECTION ( 'NONE',  ( -1.260253037029159800E-030, 6.860497997771531600E-015, 1.000000000000000000 ) ) ;
#296 =( GEOMETRIC_REPRESENTATION_CONTEXT ( 3 ) GLOBAL_UNCERTAINTY_ASSIGNED_CONTEXT ( ( #116 ) ) GLOBAL_UNIT_ASSIGNED_CONTEXT ( ( #111, #148, #54 ) ) REPRESENTATION_CONTEXT ( 'NONE', 'WORKASPACE' ) );
#297 = ORIENTED_EDGE ( 'NONE', *, *, #145, .T. ) ;
#298 = COORDINATED_UNIVERSAL_TIME_OFFSET ( 5, 0, .BEHIND. ) ;
#299 = COORDINATED_UNIVERSAL_TIME_OFFSET ( 5, 0, .BEHIND. ) ;
#300 = LOCAL_TIME ( 16, 55, 1.000000000000000000, #321 ) ;
#301 = CARTESIAN_POINT ( 'NONE',  ( 5.846405286725717700, 0.02464055710182451100, 3.017597938395563800E-018 ) ) ;
#302 = CARTESIAN_POINT ( 'NONE',  ( -0.05905511811023631700, 0.4999999999999998300, 6.123233995736764800E-017 ) ) ;
#303 = VERTEX_POINT ( 'NONE', #161 ) ;
#304 = VECTOR ( 'NONE', #265, 39.37007874015748100 ) ;
#305 = APPROVAL ( #151, 'UNSPECIFIED' ) ;
#306 = MECHANICAL_CONTEXT ( 'NONE', #241, 'mechanical' ) ;
#307 = ORIENTED_EDGE ( 'NONE', *, *, #153, .T. ) ;
#308 = DIRECTION ( 'NONE',  ( -1.000000000000000000, -1.836970198721029900E-016, -0.0000000000000000000 ) ) ;
#309 = ORIENTED_EDGE ( 'NONE', *, *, #261, .T. ) ;
#310 = LINE ( 'NONE', #70, #79 ) ;
#311 = CARTESIAN_POINT ( 'NONE',  ( -0.05905511811023622700, -2.169649841009090600E-017, 7.575291931707209800E-032 ) ) ;
#312 = AXIS2_PLACEMENT_3D ( 'NONE', #287, #189, #271 ) ;
#313 = CARTESIAN_POINT ( 'NONE',  ( -0.03354178138857170900, 4.686723922763261700E-018, 0.0000000000000000000 ) ) ;
#314 = DIRECTION ( 'NONE',  ( -1.000000000000000000, 0.0000000000000000000, 0.0000000000000000000 ) ) ;
#315 = ORIENTED_EDGE ( 'NONE', *, *, #43, .T. ) ;
#316 = CARTESIAN_POINT ( 'NONE',  ( -0.03354178138857170900, 4.686723922763261700E-018, 0.0000000000000000000 ) ) ;
#317 = ADVANCED_FACE ( 'NONE', ( #105 ), #250, .F. ) ;
#318 = CALENDAR_DATE ( 2015, 16, 11 ) ;
#319 = ORIENTED_EDGE ( 'NONE', *, *, #277, .T. ) ;
#320 = PERSON ( 'UNSPECIFIED', 'UNSPECIFIED', 'UNSPECIFIED', ('UNSPECIFIED'), ('UNSPECIFIED'), ('UNSPECIFIED') ) ;
#321 = COORDINATED_UNIVERSAL_TIME_OFFSET ( 5, 0, .BEHIND. ) ;
#322 = CARTESIAN_POINT ( 'NONE',  ( 0.1433216668399237800, 3.717601228664185500E-017, 0.0000000000000000000 ) ) ;
#323 = CARTESIAN_POINT ( 'NONE',  ( -0.03354178138857179900, 0.4999999999999999400, 0.0000000000000000000 ) ) ;
#324 = APPROVAL_ROLE ( '' ) ;
#325 = CC_DESIGN_APPROVAL ( #305, ( #257 ) ) ;
#326 = ORIENTED_EDGE ( 'NONE', *, *, #69, .T. ) ;
#327 = ORIENTED_EDGE ( 'NONE', *, *, #135, .T. ) ;
#328 = TOROIDAL_SURFACE ( 'NONE', #18, 0.02464055710182342500, 5.905511811023623100 ) ;
#329 = DATE_AND_TIME ( #256, #300 ) ;
#330 = ORIENTED_EDGE ( 'NONE', *, *, #35, .F. ) ;
ENDSEC;
END-ISO-10303-21;
