ISO-10303-21;
HEADER;
FILE_DESCRIPTION (( 'STEP AP203' ),
    '1' );
FILE_NAME ('Web Model 49630.STEP',
    '2017-01-31T15:23:17',
    ( '' ),
    ( '' ),
    'SwSTEP 2.0',
    'SolidWorks 2016',
    '' );
FILE_SCHEMA (( 'CONFIG_CONTROL_DESIGN' ));
ENDSEC;

DATA;
#1 = CC_DESIGN_APPROVAL ( #206, ( #165 ) ) ;
#2 = CARTESIAN_POINT ( 'NONE',  ( 17.50000000000000000, 17.50000000000000000, 3.000000000000000000 ) ) ;
#3 = EDGE_CURVE ( 'NONE', #204, #47, #232, .T. ) ;
#4 = ADVANCED_FACE ( 'NONE', ( #184 ), #185, .F. ) ;
#5 = LINE ( 'NONE', #181, #145 ) ;
#6 = LINE ( 'NONE', #166, #138 ) ;
#7 = ORIENTED_EDGE ( 'NONE', *, *, #63, .F. ) ;
#8 = CARTESIAN_POINT ( 'NONE',  ( -17.50000000000000000, 17.50000000000000000, 0.0000000000000000000 ) ) ;
#9 = EDGE_LOOP ( 'NONE', ( #154, #7, #223, #212 ) ) ;
#10 = CARTESIAN_POINT ( 'NONE',  ( -17.50000000000000000, -17.50000000000000000, 3.000000000000000000 ) ) ;
#11 = LOCAL_TIME ( 10, 23, 17.00000000000000000, #58 ) ;
#12 = DIRECTION ( 'NONE',  ( -0.0000000000000000000, 1.000000000000000000, -0.0000000000000000000 ) ) ;
#13 = VERTEX_POINT ( 'NONE', #59 ) ;
#14 = EDGE_LOOP ( 'NONE', ( #132, #227, #159, #180 ) ) ;
#15 = APPROVAL_PERSON_ORGANIZATION ( #189, #33, #173 ) ;
#16 = PRODUCT_DEFINITION_SHAPE ( 'NONE', 'NONE',  #165 ) ;
#17 = CALENDAR_DATE ( 2017, 31, 1 ) ;
#18 = CARTESIAN_POINT ( 'NONE',  ( 17.50000000000000000, -17.50000000000000000, 3.000000000000000000 ) ) ;
#19 = DIRECTION ( 'NONE',  ( 0.0000000000000000000, 0.0000000000000000000, 1.000000000000000000 ) ) ;
#20 = PERSON_AND_ORGANIZATION ( #68, #107 ) ;
#21 = DIRECTION ( 'NONE',  ( 0.0000000000000000000, 0.0000000000000000000, 1.000000000000000000 ) ) ;
#22 = DIRECTION ( 'NONE',  ( 1.000000000000000000, 0.0000000000000000000, 0.0000000000000000000 ) ) ;
#23 = APPLICATION_PROTOCOL_DEFINITION ( 'international standard', 'config_control_design', 1994, #61 ) ;
#24 = DIRECTION ( 'NONE',  ( -0.0000000000000000000, 0.0000000000000000000, -1.000000000000000000 ) ) ;
#25 = CARTESIAN_POINT ( 'NONE',  ( -17.50000000000000000, 17.50000000000000000, 3.000000000000000000 ) ) ;
#26 = DATE_AND_TIME ( #17, #129 ) ;
#27 = CARTESIAN_POINT ( 'NONE',  ( -17.50000000000000000, -17.50000000000000000, 3.000000000000000000 ) ) ;
#28 = EDGE_CURVE ( 'NONE', #53, #13, #6, .T. ) ;
#29 = DIRECTION ( 'NONE',  ( 1.000000000000000000, 0.0000000000000000000, 0.0000000000000000000 ) ) ;
#30 = LINE ( 'NONE', #92, #35 ) ;
#31 = FACE_OUTER_BOUND ( 'NONE', #72, .T. ) ;
#32 = PERSON_AND_ORGANIZATION ( #68, #107 ) ;
#33 = APPROVAL ( #216, 'UNSPECIFIED' ) ;
#34 = AXIS2_PLACEMENT_3D ( 'NONE', #134, #19, #100 ) ;
#35 = VECTOR ( 'NONE', #182, 1000.000000000000000 ) ;
#36 = ADVANCED_BREP_SHAPE_REPRESENTATION ( 'Web Model 49630', ( #176, #34 ), #131 ) ;
#37 = FACE_OUTER_BOUND ( 'NONE', #62, .T. ) ;
#38 = VECTOR ( 'NONE', #45, 1000.000000000000000 ) ;
#39 = APPROVAL ( #209, 'UNSPECIFIED' ) ;
#40 = VERTEX_POINT ( 'NONE', #112 ) ;
#41 = DIRECTION ( 'NONE',  ( -1.000000000000000000, 0.0000000000000000000, 0.0000000000000000000 ) ) ;
#42 = DIRECTION ( 'NONE',  ( 1.000000000000000000, 0.0000000000000000000, 0.0000000000000000000 ) ) ;
#43 = PERSON_AND_ORGANIZATION_ROLE ( 'creator' ) ;
#44 = ADVANCED_FACE ( 'NONE', ( #95 ), #77, .F. ) ;
#45 = DIRECTION ( 'NONE',  ( 0.0000000000000000000, -1.000000000000000000, 0.0000000000000000000 ) ) ;
#46 = VECTOR ( 'NONE', #29, 1000.000000000000000 ) ;
#47 = VERTEX_POINT ( 'NONE', #151 ) ;
#48 = DIRECTION ( 'NONE',  ( 0.0000000000000000000, -0.0000000000000000000, 1.000000000000000000 ) ) ;
#49 = CARTESIAN_POINT ( 'NONE',  ( -17.50000000000000000, -17.50000000000000000, 3.000000000000000000 ) ) ;
#50 = PERSON_AND_ORGANIZATION_ROLE ( 'design_owner' ) ;
#51 = VECTOR ( 'NONE', #12, 1000.000000000000000 ) ;
#52 = VECTOR ( 'NONE', #70, 1000.000000000000000 ) ;
#53 = VERTEX_POINT ( 'NONE', #18 ) ;
#54 = CALENDAR_DATE ( 2017, 31, 1 ) ;
#55 = EDGE_CURVE ( 'NONE', #40, #57, #5, .T. ) ;
#56 = ORIENTED_EDGE ( 'NONE', *, *, #113, .F. ) ;
#57 = VERTEX_POINT ( 'NONE', #103 ) ;
#58 = COORDINATED_UNIVERSAL_TIME_OFFSET ( 5, 0, .BEHIND. ) ;
#59 = CARTESIAN_POINT ( 'NONE',  ( 17.50000000000000000, -17.50000000000000000, 0.0000000000000000000 ) ) ;
#60 = CARTESIAN_POINT ( 'NONE',  ( 17.50000000000000000, 17.50000000000000000, 0.0000000000000000000 ) ) ;
#61 = APPLICATION_CONTEXT ( 'configuration controlled 3d designs of mechanical parts and assemblies' ) ;
#62 = EDGE_LOOP ( 'NONE', ( #233, #97, #128, #199 ) ) ;
#63 = EDGE_CURVE ( 'NONE', #105, #47, #193, .T. ) ;
#64 =( LENGTH_UNIT ( ) NAMED_UNIT ( * ) SI_UNIT ( .MILLI., .METRE. ) );
#65 = DIRECTION ( 'NONE',  ( 0.0000000000000000000, 1.000000000000000000, 0.0000000000000000000 ) ) ;
#66 = FACE_OUTER_BOUND ( 'NONE', #87, .T. ) ;
#67 = COORDINATED_UNIVERSAL_TIME_OFFSET ( 5, 0, .BEHIND. ) ;
#68 = PERSON ( 'UNSPECIFIED', 'UNSPECIFIED', 'UNSPECIFIED', ('UNSPECIFIED'), ('UNSPECIFIED'), ('UNSPECIFIED') ) ;
#69 = DIRECTION ( 'NONE',  ( 1.000000000000000000, 0.0000000000000000000, 0.0000000000000000000 ) ) ;
#70 = DIRECTION ( 'NONE',  ( -0.0000000000000000000, -0.0000000000000000000, -1.000000000000000000 ) ) ;
#71 = DESIGN_CONTEXT ( 'detailed design', #61, 'design' ) ;
#72 = EDGE_LOOP ( 'NONE', ( #203, #186, #163, #164 ) ) ;
#73 = COORDINATED_UNIVERSAL_TIME_OFFSET ( 5, 0, .BEHIND. ) ;
#74 = AXIS2_PLACEMENT_3D ( 'NONE', #25, #80, #24 ) ;
#75 = EDGE_CURVE ( 'NONE', #13, #190, #202, .T. ) ;
#76 = DATE_AND_TIME ( #137, #178 ) ;
#77 = PLANE ( 'NONE',  #222 ) ;
#78 = DATE_TIME_ROLE ( 'creation_date' ) ;
#79 = APPROVAL_DATE_TIME ( #26, #39 ) ;
#80 = DIRECTION ( 'NONE',  ( 1.000000000000000000, 0.0000000000000000000, -0.0000000000000000000 ) ) ;
#81 = DIRECTION ( 'NONE',  ( -1.000000000000000000, -0.0000000000000000000, -0.0000000000000000000 ) ) ;
#82 = DIRECTION ( 'NONE',  ( -0.0000000000000000000, -0.0000000000000000000, -1.000000000000000000 ) ) ;
#83 = DATE_TIME_ROLE ( 'classification_date' ) ;
#84 = APPROVAL_DATE_TIME ( #76, #33 ) ;
#85 = LINE ( 'NONE', #140, #194 ) ;
#86 = SECURITY_CLASSIFICATION ( '', '', #124 ) ;
#87 = EDGE_LOOP ( 'NONE', ( #102, #56, #91, #218 ) ) ;
#88 = EDGE_CURVE ( 'NONE', #57, #204, #221, .T. ) ;
#89 = CC_DESIGN_PERSON_AND_ORGANIZATION_ASSIGNMENT ( #155, #43, ( #149 ) ) ;
#90 = EDGE_CURVE ( 'NONE', #40, #190, #148, .T. ) ;
#91 = ORIENTED_EDGE ( 'NONE', *, *, #75, .F. ) ;
#92 = CARTESIAN_POINT ( 'NONE',  ( 17.50000000000000000, 17.50000000000000000, 3.000000000000000000 ) ) ;
#93 = APPROVAL_ROLE ( '' ) ;
#94 = VECTOR ( 'NONE', #161, 1000.000000000000000 ) ;
#95 = FACE_OUTER_BOUND ( 'NONE', #104, .T. ) ;
#96 = EDGE_CURVE ( 'NONE', #57, #105, #196, .T. ) ;
#97 = ORIENTED_EDGE ( 'NONE', *, *, #28, .F. ) ;
#98 = PLANE ( 'NONE',  #122 ) ;
#99 = ADVANCED_FACE ( 'NONE', ( #37 ), #157, .F. ) ;
#100 = DIRECTION ( 'NONE',  ( 1.000000000000000000, 0.0000000000000000000, 0.0000000000000000000 ) ) ;
#101 = LOCAL_TIME ( 10, 23, 17.00000000000000000, #224 ) ;
#102 = ORIENTED_EDGE ( 'NONE', *, *, #3, .F. ) ;
#103 = CARTESIAN_POINT ( 'NONE',  ( -17.50000000000000000, 17.50000000000000000, 3.000000000000000000 ) ) ;
#104 = EDGE_LOOP ( 'NONE', ( #116, #172, #110, #236 ) ) ;
#105 = VERTEX_POINT ( 'NONE', #27 ) ;
#106 = CC_DESIGN_DATE_AND_TIME_ASSIGNMENT ( #111, #83, ( #86 ) ) ;
#107 = ORGANIZATION ( 'UNSPECIFIED', 'UNSPECIFIED', '' ) ;
#108 = APPROVAL_DATE_TIME ( #205, #206 ) ;
#109 = CC_DESIGN_PERSON_AND_ORGANIZATION_ASSIGNMENT ( #213, #168, ( #165 ) ) ;
#110 = ORIENTED_EDGE ( 'NONE', *, *, #158, .F. ) ;
#111 = DATE_AND_TIME ( #54, #169 ) ;
#112 = CARTESIAN_POINT ( 'NONE',  ( 17.50000000000000000, 17.50000000000000000, 3.000000000000000000 ) ) ;
#113 = EDGE_CURVE ( 'NONE', #190, #204, #123, .T. ) ;
#114 = ADVANCED_FACE ( 'NONE', ( #66 ), #153, .F. ) ;
#115 = VECTOR ( 'NONE', #171, 1000.000000000000000 ) ;
#116 = ORIENTED_EDGE ( 'NONE', *, *, #75, .T. ) ;
#117 = APPROVAL_PERSON_ORGANIZATION ( #162, #39, #93 ) ;
#118 = APPLICATION_PROTOCOL_DEFINITION ( 'international standard', 'config_control_design', 1994, #133 ) ;
#119 = CC_DESIGN_APPROVAL ( #33, ( #86 ) ) ;
#120 = CARTESIAN_POINT ( 'NONE',  ( -17.50000000000000000, 17.50000000000000000, 0.0000000000000000000 ) ) ;
#121 = PRODUCT ( 'Web Model 49630', 'Web Model 49630', '', ( #160 ) ) ;
#122 = AXIS2_PLACEMENT_3D ( 'NONE', #187, #170, #167 ) ;
#123 = LINE ( 'NONE', #120, #200 ) ;
#124 = SECURITY_CLASSIFICATION_LEVEL ( 'unclassified' ) ;
#125 = EDGE_CURVE ( 'NONE', #47, #13, #147, .T. ) ;
#126 = COORDINATED_UNIVERSAL_TIME_OFFSET ( 5, 0, .BEHIND. ) ;
#127 = PERSON_AND_ORGANIZATION_ROLE ( 'classification_officer' ) ;
#128 = ORIENTED_EDGE ( 'NONE', *, *, #228, .F. ) ;
#129 = LOCAL_TIME ( 10, 23, 17.00000000000000000, #67 ) ;
#130 = PRODUCT_RELATED_PRODUCT_CATEGORY ( 'detail', '', ( #121 ) ) ;
#131 =( GEOMETRIC_REPRESENTATION_CONTEXT ( 3 ) GLOBAL_UNCERTAINTY_ASSIGNED_CONTEXT ( ( #235 ) ) GLOBAL_UNIT_ASSIGNED_CONTEXT ( ( #64, #229, #231 ) ) REPRESENTATION_CONTEXT ( 'NONE', 'WORKASPACE' ) );
#132 = ORIENTED_EDGE ( 'NONE', *, *, #113, .T. ) ;
#133 = APPLICATION_CONTEXT ( 'configuration controlled 3d designs of mechanical parts and assemblies' ) ;
#134 = CARTESIAN_POINT ( 'NONE',  ( 0.0000000000000000000, 0.0000000000000000000, 0.0000000000000000000 ) ) ;
#135 = DIRECTION ( 'NONE',  ( -0.0000000000000000000, -0.0000000000000000000, -1.000000000000000000 ) ) ;
#136 = ADVANCED_FACE ( 'NONE', ( #31 ), #144, .T. ) ;
#137 = CALENDAR_DATE ( 2017, 31, 1 ) ;
#138 = VECTOR ( 'NONE', #135, 1000.000000000000000 ) ;
#139 = CC_DESIGN_DATE_AND_TIME_ASSIGNMENT ( #237, #78, ( #165 ) ) ;
#140 = CARTESIAN_POINT ( 'NONE',  ( -17.50000000000000000, -17.50000000000000000, 3.000000000000000000 ) ) ;
#141 = FACE_OUTER_BOUND ( 'NONE', #14, .T. ) ;
#142 = DIRECTION ( 'NONE',  ( -0.0000000000000000000, 0.0000000000000000000, 1.000000000000000000 ) ) ;
#143 = CARTESIAN_POINT ( 'NONE',  ( -17.50000000000000000, -17.50000000000000000, 3.000000000000000000 ) ) ;
#144 = PLANE ( 'NONE',  #214 ) ;
#145 = VECTOR ( 'NONE', #207, 1000.000000000000000 ) ;
#146 = VECTOR ( 'NONE', #82, 1000.000000000000000 ) ;
#147 = LINE ( 'NONE', #192, #46 ) ;
#148 = LINE ( 'NONE', #230, #146 ) ;
#149 = PRODUCT_DEFINITION_FORMATION_WITH_SPECIFIED_SOURCE ( 'ANY', '', #121, .NOT_KNOWN. ) ;
#150 = PERSON_AND_ORGANIZATION ( #68, #107 ) ;
#151 = CARTESIAN_POINT ( 'NONE',  ( -17.50000000000000000, -17.50000000000000000, 0.0000000000000000000 ) ) ;
#152 = APPROVAL_STATUS ( 'not_yet_approved' ) ;
#153 = PLANE ( 'NONE',  #234 ) ;
#154 = ORIENTED_EDGE ( 'NONE', *, *, #3, .T. ) ;
#155 = PERSON_AND_ORGANIZATION ( #68, #107 ) ;
#156 = CC_DESIGN_APPROVAL ( #39, ( #149 ) ) ;
#157 = PLANE ( 'NONE',  #191 ) ;
#158 = EDGE_CURVE ( 'NONE', #53, #40, #30, .T. ) ;
#159 = ORIENTED_EDGE ( 'NONE', *, *, #55, .F. ) ;
#160 = MECHANICAL_CONTEXT ( 'NONE', #133, 'mechanical' ) ;
#161 = DIRECTION ( 'NONE',  ( -0.0000000000000000000, -0.0000000000000000000, -1.000000000000000000 ) ) ;
#162 = PERSON_AND_ORGANIZATION ( #68, #107 ) ;
#163 = ORIENTED_EDGE ( 'NONE', *, *, #158, .T. ) ;
#164 = ORIENTED_EDGE ( 'NONE', *, *, #55, .T. ) ;
#165 = PRODUCT_DEFINITION ( 'UNKNOWN', '', #149, #71 ) ;
#166 = CARTESIAN_POINT ( 'NONE',  ( 17.50000000000000000, -17.50000000000000000, 3.000000000000000000 ) ) ;
#167 = DIRECTION ( 'NONE',  ( 0.0000000000000000000, -0.0000000000000000000, -1.000000000000000000 ) ) ;
#168 = PERSON_AND_ORGANIZATION_ROLE ( 'creator' ) ;
#169 = LOCAL_TIME ( 10, 23, 17.00000000000000000, #73 ) ;
#170 = DIRECTION ( 'NONE',  ( 0.0000000000000000000, -1.000000000000000000, 0.0000000000000000000 ) ) ;
#171 = DIRECTION ( 'NONE',  ( 0.0000000000000000000, -1.000000000000000000, 0.0000000000000000000 ) ) ;
#172 = ORIENTED_EDGE ( 'NONE', *, *, #90, .F. ) ;
#173 = APPROVAL_ROLE ( '' ) ;
#174 = CARTESIAN_POINT ( 'NONE',  ( -17.50000000000000000, 17.50000000000000000, 3.000000000000000000 ) ) ;
#175 = CALENDAR_DATE ( 2017, 31, 1 ) ;
#176 = MANIFOLD_SOLID_BREP ( 'Extrude1', #177 ) ;
#177 = CLOSED_SHELL ( 'NONE', ( #4, #99, #44, #210, #136, #114 ) ) ;
#178 = LOCAL_TIME ( 10, 23, 17.00000000000000000, #126 ) ;
#179 = CC_DESIGN_PERSON_AND_ORGANIZATION_ASSIGNMENT ( #20, #50, ( #121 ) ) ;
#180 = ORIENTED_EDGE ( 'NONE', *, *, #90, .T. ) ;
#181 = CARTESIAN_POINT ( 'NONE',  ( -17.50000000000000000, 17.50000000000000000, 3.000000000000000000 ) ) ;
#182 = DIRECTION ( 'NONE',  ( -0.0000000000000000000, 1.000000000000000000, -0.0000000000000000000 ) ) ;
#183 = APPROVAL_ROLE ( '' ) ;
#184 = FACE_OUTER_BOUND ( 'NONE', #9, .T. ) ;
#185 = PLANE ( 'NONE',  #74 ) ;
#186 = ORIENTED_EDGE ( 'NONE', *, *, #228, .T. ) ;
#187 = CARTESIAN_POINT ( 'NONE',  ( -17.50000000000000000, 17.50000000000000000, 3.000000000000000000 ) ) ;
#188 = CARTESIAN_POINT ( 'NONE',  ( -17.50000000000000000, 17.50000000000000000, 3.000000000000000000 ) ) ;
#189 = PERSON_AND_ORGANIZATION ( #68, #107 ) ;
#190 = VERTEX_POINT ( 'NONE', #60 ) ;
#191 = AXIS2_PLACEMENT_3D ( 'NONE', #10, #65, #48 ) ;
#192 = CARTESIAN_POINT ( 'NONE',  ( -17.50000000000000000, -17.50000000000000000, 0.0000000000000000000 ) ) ;
#193 = LINE ( 'NONE', #143, #94 ) ;
#194 = VECTOR ( 'NONE', #42, 1000.000000000000000 ) ;
#195 = CARTESIAN_POINT ( 'NONE',  ( 17.50000000000000000, 17.50000000000000000, 0.0000000000000000000 ) ) ;
#196 = LINE ( 'NONE', #188, #115 ) ;
#197 = PERSON_AND_ORGANIZATION ( #68, #107 ) ;
#198 = CC_DESIGN_PERSON_AND_ORGANIZATION_ASSIGNMENT ( #32, #127, ( #86 ) ) ;
#199 = ORIENTED_EDGE ( 'NONE', *, *, #63, .T. ) ;
#200 = VECTOR ( 'NONE', #81, 1000.000000000000000 ) ;
#201 = CALENDAR_DATE ( 2017, 31, 1 ) ;
#202 = LINE ( 'NONE', #195, #51 ) ;
#203 = ORIENTED_EDGE ( 'NONE', *, *, #96, .T. ) ;
#204 = VERTEX_POINT ( 'NONE', #225 ) ;
#205 = DATE_AND_TIME ( #175, #101 ) ;
#206 = APPROVAL ( #152, 'UNSPECIFIED' ) ;
#207 = DIRECTION ( 'NONE',  ( -1.000000000000000000, -0.0000000000000000000, -0.0000000000000000000 ) ) ;
#208 = DIRECTION ( 'NONE',  ( -0.0000000000000000000, 0.0000000000000000000, 1.000000000000000000 ) ) ;
#209 = APPROVAL_STATUS ( 'not_yet_approved' ) ;
#210 = ADVANCED_FACE ( 'NONE', ( #141 ), #98, .F. ) ;
#211 = CC_DESIGN_PERSON_AND_ORGANIZATION_ASSIGNMENT ( #150, #217, ( #149 ) ) ;
#212 = ORIENTED_EDGE ( 'NONE', *, *, #88, .T. ) ;
#213 = PERSON_AND_ORGANIZATION ( #68, #107 ) ;
#214 = AXIS2_PLACEMENT_3D ( 'NONE', #49, #208, #22 ) ;
#215 = CARTESIAN_POINT ( 'NONE',  ( -17.50000000000000000, -17.50000000000000000, 0.0000000000000000000 ) ) ;
#216 = APPROVAL_STATUS ( 'not_yet_approved' ) ;
#217 = PERSON_AND_ORGANIZATION_ROLE ( 'design_supplier' ) ;
#218 = ORIENTED_EDGE ( 'NONE', *, *, #125, .F. ) ;
#219 = SHAPE_DEFINITION_REPRESENTATION ( #16, #36 ) ;
#220 = APPROVAL_PERSON_ORGANIZATION ( #197, #206, #183 ) ;
#221 = LINE ( 'NONE', #174, #52 ) ;
#222 = AXIS2_PLACEMENT_3D ( 'NONE', #2, #41, #21 ) ;
#223 = ORIENTED_EDGE ( 'NONE', *, *, #96, .F. ) ;
#224 = COORDINATED_UNIVERSAL_TIME_OFFSET ( 5, 0, .BEHIND. ) ;
#225 = CARTESIAN_POINT ( 'NONE',  ( -17.50000000000000000, 17.50000000000000000, 0.0000000000000000000 ) ) ;
#226 = CC_DESIGN_SECURITY_CLASSIFICATION ( #86, ( #149 ) ) ;
#227 = ORIENTED_EDGE ( 'NONE', *, *, #88, .F. ) ;
#228 = EDGE_CURVE ( 'NONE', #105, #53, #85, .T. ) ;
#229 =( NAMED_UNIT ( * ) PLANE_ANGLE_UNIT ( ) SI_UNIT ( $, .RADIAN. ) );
#230 = CARTESIAN_POINT ( 'NONE',  ( 17.50000000000000000, 17.50000000000000000, 3.000000000000000000 ) ) ;
#231 =( NAMED_UNIT ( * ) SI_UNIT ( $, .STERADIAN. ) SOLID_ANGLE_UNIT ( ) );
#232 = LINE ( 'NONE', #8, #38 ) ;
#233 = ORIENTED_EDGE ( 'NONE', *, *, #125, .T. ) ;
#234 = AXIS2_PLACEMENT_3D ( 'NONE', #215, #142, #69 ) ;
#235 = UNCERTAINTY_MEASURE_WITH_UNIT (LENGTH_MEASURE( 1.000000000000000100E-005 ), #64, 'distance_accuracy_value', 'NONE');
#236 = ORIENTED_EDGE ( 'NONE', *, *, #28, .T. ) ;
#237 = DATE_AND_TIME ( #201, #11 ) ;
ENDSEC;
END-ISO-10303-21;
