ISO-10303-21;
HEADER;
FILE_DESCRIPTION (( 'STEP AP214' ),
    '1' );
FILE_NAME ('step_48545.STEP',
    '2017-04-21T16:45:29',
    ( '' ),
    ( '' ),
    'SwSTEP 2.0',
    'SolidWorks 2016',
    '' );
FILE_SCHEMA (( 'AUTOMOTIVE_DESIGN' ));
ENDSEC;

DATA;
#1 = UNCERTAINTY_MEASURE_WITH_UNIT (LENGTH_MEASURE( 1.000000000000000100E-005 ), #90, 'distance_accuracy_value', 'NONE');
#2 = CARTESIAN_POINT ( 'NONE',  ( 0.0000000000000000000, 0.0000000000000000000, 0.0000000000000000000 ) ) ;
#3 = EDGE_CURVE ( 'NONE', #117, #41, #119, .T. ) ;
#4 = PLANE ( 'NONE',  #137 ) ;
#5 = VECTOR ( 'NONE', #32, 1000.000000000000000 ) ;
#6 = ORIENTED_EDGE ( 'NONE', *, *, #131, .F. ) ;
#7 = FILL_AREA_STYLE ('',( #155 ) ) ;
#8 = LINE ( 'NONE', #20, #178 ) ;
#9 = CLOSED_SHELL ( 'NONE', ( #10, #103, #11, #26, #63, #51 ) ) ;
#10 = ADVANCED_FACE ( 'NONE', ( #80 ), #39, .F. ) ;
#11 = ADVANCED_FACE ( 'NONE', ( #190 ), #4, .F. ) ;
#12 = EDGE_CURVE ( 'NONE', #202, #41, #57, .T. ) ;
#13 =( NAMED_UNIT ( * ) SI_UNIT ( $, .STERADIAN. ) SOLID_ANGLE_UNIT ( ) );
#14 = CARTESIAN_POINT ( 'NONE',  ( 0.0000000000000000000, 0.0000000000000000000, 0.6999999999999999600 ) ) ;
#15 = EDGE_LOOP ( 'NONE', ( #94, #171, #53, #47 ) ) ;
#16 = SURFACE_STYLE_FILL_AREA ( #7 ) ;
#17 = PLANE ( 'NONE',  #201 ) ;
#18 = EDGE_LOOP ( 'NONE', ( #200, #127, #167, #107 ) ) ;
#19 = DIRECTION ( 'NONE',  ( 0.0000000000000000000, 0.0000000000000000000, -1.000000000000000000 ) ) ;
#20 = CARTESIAN_POINT ( 'NONE',  ( 25.00000000000000000, 0.0000000000000000000, 0.6999999999999999600 ) ) ;
#21 = VECTOR ( 'NONE', #121, 1000.000000000000000 ) ;
#22 = CARTESIAN_POINT ( 'NONE',  ( 0.0000000000000000000, 25.00000000000000000, 0.6999999999999999600 ) ) ;
#23 = LINE ( 'NONE', #133, #21 ) ;
#24 = EDGE_CURVE ( 'NONE', #86, #117, #140, .T. ) ;
#25 = VECTOR ( 'NONE', #83, 1000.000000000000000 ) ;
#26 = ADVANCED_FACE ( 'NONE', ( #162 ), #128, .F. ) ;
#27 = DIRECTION ( 'NONE',  ( -0.0000000000000000000, -0.0000000000000000000, -1.000000000000000000 ) ) ;
#28 = EDGE_CURVE ( 'NONE', #117, #64, #144, .T. ) ;
#29 = DIRECTION ( 'NONE',  ( 0.0000000000000000000, -0.0000000000000000000, 1.000000000000000000 ) ) ;
#30 = ORIENTED_EDGE ( 'NONE', *, *, #12, .F. ) ;
#31 = AXIS2_PLACEMENT_3D ( 'NONE', #177, #146, #100 ) ;
#32 = DIRECTION ( 'NONE',  ( -0.0000000000000000000, -1.000000000000000000, -0.0000000000000000000 ) ) ;
#33 = STYLED_ITEM ( 'NONE', ( #197 ), #168 ) ;
#34 = DIRECTION ( 'NONE',  ( -1.000000000000000000, 0.0000000000000000000, -0.0000000000000000000 ) ) ;
#35 = ORIENTED_EDGE ( 'NONE', *, *, #97, .F. ) ;
#36 = ORIENTED_EDGE ( 'NONE', *, *, #66, .F. ) ;
#37 = VECTOR ( 'NONE', #174, 1000.000000000000000 ) ;
#38 = COLOUR_RGB ( '',0.9411764705882352800, 0.9607843137254902200, 0.9686274509803921600 ) ;
#39 = PLANE ( 'NONE',  #31 ) ;
#40 = ADVANCED_BREP_SHAPE_REPRESENTATION ( 'step_48545', ( #168, #88 ), #49 ) ;
#41 = VERTEX_POINT ( 'NONE', #116 ) ;
#42 = CARTESIAN_POINT ( 'NONE',  ( 0.0000000000000000000, 0.0000000000000000000, 0.0000000000000000000 ) ) ;
#43 = VERTEX_POINT ( 'NONE', #111 ) ;
#44 =( NAMED_UNIT ( * ) SI_UNIT ( $, .STERADIAN. ) SOLID_ANGLE_UNIT ( ) );
#45 = ORIENTED_EDGE ( 'NONE', *, *, #46, .F. ) ;
#46 = EDGE_CURVE ( 'NONE', #112, #86, #8, .T. ) ;
#47 = ORIENTED_EDGE ( 'NONE', *, *, #3, .T. ) ;
#48 = SURFACE_STYLE_FILL_AREA ( #61 ) ;
#49 =( GEOMETRIC_REPRESENTATION_CONTEXT ( 3 ) GLOBAL_UNCERTAINTY_ASSIGNED_CONTEXT ( ( #1 ) ) GLOBAL_UNIT_ASSIGNED_CONTEXT ( ( #90, #110, #13 ) ) REPRESENTATION_CONTEXT ( 'NONE', 'WORKASPACE' ) );
#50 = DIRECTION ( 'NONE',  ( 0.0000000000000000000, -0.0000000000000000000, -1.000000000000000000 ) ) ;
#51 = ADVANCED_FACE ( 'NONE', ( #142 ), #126, .T. ) ;
#52 = CARTESIAN_POINT ( 'NONE',  ( 25.00000000000000000, 0.0000000000000000000, 0.6999999999999999600 ) ) ;
#53 = ORIENTED_EDGE ( 'NONE', *, *, #28, .F. ) ;
#54 = DIRECTION ( 'NONE',  ( -0.0000000000000000000, -0.0000000000000000000, -1.000000000000000000 ) ) ;
#55 = EDGE_LOOP ( 'NONE', ( #188, #102, #196, #157 ) ) ;
#56 = DIRECTION ( 'NONE',  ( 0.0000000000000000000, -1.000000000000000000, 0.0000000000000000000 ) ) ;
#57 = LINE ( 'NONE', #175, #37 ) ;
#58 = FACE_OUTER_BOUND ( 'NONE', #191, .T. ) ;
#59 =( LENGTH_UNIT ( ) NAMED_UNIT ( * ) SI_UNIT ( .MILLI., .METRE. ) );
#60 = MECHANICAL_DESIGN_GEOMETRIC_PRESENTATION_REPRESENTATION (  '', ( #161 ), #152 ) ;
#61 = FILL_AREA_STYLE ('',( #154 ) ) ;
#62 = LINE ( 'NONE', #14, #156 ) ;
#63 = ADVANCED_FACE ( 'NONE', ( #92 ), #170, .F. ) ;
#64 = VERTEX_POINT ( 'NONE', #95 ) ;
#65 = CARTESIAN_POINT ( 'NONE',  ( 0.0000000000000000000, 25.00000000000000000, 0.6999999999999999600 ) ) ;
#66 = EDGE_CURVE ( 'NONE', #64, #112, #62, .T. ) ;
#67 = PRESENTATION_LAYER_ASSIGNMENT (  '', '', ( #33 ) ) ;
#68 =( LENGTH_UNIT ( ) NAMED_UNIT ( * ) SI_UNIT ( .MILLI., .METRE. ) );
#69 = ORIENTED_EDGE ( 'NONE', *, *, #76, .F. ) ;
#70 = CARTESIAN_POINT ( 'NONE',  ( 0.0000000000000000000, 25.00000000000000000, 0.6999999999999999600 ) ) ;
#71 = CARTESIAN_POINT ( 'NONE',  ( 25.00000000000000000, 0.0000000000000000000, 0.6999999999999999600 ) ) ;
#72 = CARTESIAN_POINT ( 'NONE',  ( 0.0000000000000000000, 0.0000000000000000000, 0.6999999999999999600 ) ) ;
#73 =( NAMED_UNIT ( * ) PLANE_ANGLE_UNIT ( ) SI_UNIT ( $, .RADIAN. ) );
#74 = DIRECTION ( 'NONE',  ( -1.000000000000000000, 0.0000000000000000000, -0.0000000000000000000 ) ) ;
#75 = EDGE_LOOP ( 'NONE', ( #173, #35, #45, #89 ) ) ;
#76 = EDGE_CURVE ( 'NONE', #43, #202, #23, .T. ) ;
#77 = SURFACE_SIDE_STYLE ('',( #16 ) ) ;
#78 = SHAPE_DEFINITION_REPRESENTATION ( #198, #40 ) ;
#79 = PRODUCT_DEFINITION_FORMATION_WITH_SPECIFIED_SOURCE ( 'ANY', '', #193, .NOT_KNOWN. ) ;
#80 = FACE_OUTER_BOUND ( 'NONE', #15, .T. ) ;
#81 = LINE ( 'NONE', #108, #25 ) ;
#82 = AXIS2_PLACEMENT_3D ( 'NONE', #91, #124, #74 ) ;
#83 = DIRECTION ( 'NONE',  ( 1.000000000000000000, 0.0000000000000000000, 0.0000000000000000000 ) ) ;
#84 = DIRECTION ( 'NONE',  ( -1.000000000000000000, 0.0000000000000000000, 0.0000000000000000000 ) ) ;
#85 = SURFACE_STYLE_USAGE ( .BOTH. , #77 ) ;
#86 = VERTEX_POINT ( 'NONE', #106 ) ;
#87 = LINE ( 'NONE', #166, #93 ) ;
#88 = AXIS2_PLACEMENT_3D ( 'NONE', #192, #150, #135 ) ;
#89 = ORIENTED_EDGE ( 'NONE', *, *, #143, .T. ) ;
#90 =( LENGTH_UNIT ( ) NAMED_UNIT ( * ) SI_UNIT ( .MILLI., .METRE. ) );
#91 = CARTESIAN_POINT ( 'NONE',  ( 0.0000000000000000000, 0.0000000000000000000, 0.6999999999999999600 ) ) ;
#92 = FACE_OUTER_BOUND ( 'NONE', #18, .T. ) ;
#93 = VECTOR ( 'NONE', #27, 1000.000000000000000 ) ;
#94 = ORIENTED_EDGE ( 'NONE', *, *, #131, .T. ) ;
#95 = CARTESIAN_POINT ( 'NONE',  ( 0.0000000000000000000, 0.0000000000000000000, 0.6999999999999999600 ) ) ;
#96 = UNCERTAINTY_MEASURE_WITH_UNIT (LENGTH_MEASURE( 1.000000000000000100E-005 ), #59, 'distance_accuracy_value', 'NONE');
#97 = EDGE_CURVE ( 'NONE', #86, #202, #87, .T. ) ;
#98 = COLOUR_RGB ( '',0.9411764705882352800, 0.9607843137254902200, 0.9686274509803921600 ) ;
#99 = AXIS2_PLACEMENT_3D ( 'NONE', #22, #56, #50 ) ;
#100 = DIRECTION ( 'NONE',  ( 0.0000000000000000000, 0.0000000000000000000, -1.000000000000000000 ) ) ;
#101 = PRODUCT_CONTEXT ( 'NONE', #163, 'mechanical' ) ;
#102 = ORIENTED_EDGE ( 'NONE', *, *, #3, .F. ) ;
#103 = ADVANCED_FACE ( 'NONE', ( #58 ), #17, .F. ) ;
#104 = LINE ( 'NONE', #42, #141 ) ;
#105 = MECHANICAL_DESIGN_GEOMETRIC_PRESENTATION_REPRESENTATION (  '', ( #33 ), #172 ) ;
#106 = CARTESIAN_POINT ( 'NONE',  ( 25.00000000000000000, 25.00000000000000000, 0.6999999999999999600 ) ) ;
#107 = ORIENTED_EDGE ( 'NONE', *, *, #24, .T. ) ;
#108 = CARTESIAN_POINT ( 'NONE',  ( 0.0000000000000000000, 0.0000000000000000000, 0.0000000000000000000 ) ) ;
#109 = EDGE_CURVE ( 'NONE', #113, #43, #81, .T. ) ;
#110 =( NAMED_UNIT ( * ) PLANE_ANGLE_UNIT ( ) SI_UNIT ( $, .RADIAN. ) );
#111 = CARTESIAN_POINT ( 'NONE',  ( 25.00000000000000000, 0.0000000000000000000, 0.0000000000000000000 ) ) ;
#112 = VERTEX_POINT ( 'NONE', #179 ) ;
#113 = VERTEX_POINT ( 'NONE', #180 ) ;
#114 = EDGE_CURVE ( 'NONE', #64, #113, #132, .T. ) ;
#115 = VECTOR ( 'NONE', #54, 1000.000000000000000 ) ;
#116 = CARTESIAN_POINT ( 'NONE',  ( 0.0000000000000000000, 25.00000000000000000, 0.0000000000000000000 ) ) ;
#117 = VERTEX_POINT ( 'NONE', #70 ) ;
#118 = SURFACE_SIDE_STYLE ('',( #48 ) ) ;
#119 = LINE ( 'NONE', #186, #115 ) ;
#120 = VECTOR ( 'NONE', #183, 1000.000000000000000 ) ;
#121 = DIRECTION ( 'NONE',  ( 0.0000000000000000000, 1.000000000000000000, 0.0000000000000000000 ) ) ;
#122 = PRESENTATION_LAYER_ASSIGNMENT (  '', '', ( #161 ) ) ;
#123 = ORIENTED_EDGE ( 'NONE', *, *, #109, .F. ) ;
#124 = DIRECTION ( 'NONE',  ( 0.0000000000000000000, 0.0000000000000000000, -1.000000000000000000 ) ) ;
#125 = AXIS2_PLACEMENT_3D ( 'NONE', #2, #19, #34 ) ;
#126 = PLANE ( 'NONE',  #125 ) ;
#127 = ORIENTED_EDGE ( 'NONE', *, *, #66, .T. ) ;
#128 = PLANE ( 'NONE',  #99 ) ;
#129 = PRODUCT_RELATED_PRODUCT_CATEGORY ( 'part', '', ( #193 ) ) ;
#130 = APPLICATION_PROTOCOL_DEFINITION ( 'draft international standard', 'automotive_design', 1998, #138 ) ;
#131 = EDGE_CURVE ( 'NONE', #41, #113, #104, .T. ) ;
#132 = LINE ( 'NONE', #169, #165 ) ;
#133 = CARTESIAN_POINT ( 'NONE',  ( 25.00000000000000000, 0.0000000000000000000, 0.0000000000000000000 ) ) ;
#134 =( NAMED_UNIT ( * ) PLANE_ANGLE_UNIT ( ) SI_UNIT ( $, .RADIAN. ) );
#135 = DIRECTION ( 'NONE',  ( 1.000000000000000000, 0.0000000000000000000, 0.0000000000000000000 ) ) ;
#136 = EDGE_LOOP ( 'NONE', ( #6, #30, #69, #123 ) ) ;
#137 = AXIS2_PLACEMENT_3D ( 'NONE', #52, #84, #187 ) ;
#138 = APPLICATION_CONTEXT ( 'automotive_design' ) ;
#139 = SURFACE_STYLE_USAGE ( .BOTH. , #118 ) ;
#140 = LINE ( 'NONE', #65, #147 ) ;
#141 = VECTOR ( 'NONE', #164, 1000.000000000000000 ) ;
#142 = FACE_OUTER_BOUND ( 'NONE', #136, .T. ) ;
#143 = EDGE_CURVE ( 'NONE', #112, #43, #148, .T. ) ;
#144 = LINE ( 'NONE', #199, #5 ) ;
#145 = PRODUCT_DEFINITION ( 'UNKNOWN', '', #79, #151 ) ;
#146 = DIRECTION ( 'NONE',  ( 1.000000000000000000, 0.0000000000000000000, 0.0000000000000000000 ) ) ;
#147 = VECTOR ( 'NONE', #158, 1000.000000000000000 ) ;
#148 = LINE ( 'NONE', #71, #120 ) ;
#149 =( NAMED_UNIT ( * ) SI_UNIT ( $, .STERADIAN. ) SOLID_ANGLE_UNIT ( ) );
#150 = DIRECTION ( 'NONE',  ( 0.0000000000000000000, 0.0000000000000000000, 1.000000000000000000 ) ) ;
#151 = PRODUCT_DEFINITION_CONTEXT ( 'detailed design', #138, 'design' ) ;
#152 =( GEOMETRIC_REPRESENTATION_CONTEXT ( 3 ) GLOBAL_UNCERTAINTY_ASSIGNED_CONTEXT ( ( #185 ) ) GLOBAL_UNIT_ASSIGNED_CONTEXT ( ( #68, #134, #149 ) ) REPRESENTATION_CONTEXT ( 'NONE', 'WORKASPACE' ) );
#153 = ORIENTED_EDGE ( 'NONE', *, *, #109, .T. ) ;
#154 = FILL_AREA_STYLE_COLOUR ( '', #38 ) ;
#155 = FILL_AREA_STYLE_COLOUR ( '', #98 ) ;
#156 = VECTOR ( 'NONE', #189, 1000.000000000000000 ) ;
#157 = ORIENTED_EDGE ( 'NONE', *, *, #97, .T. ) ;
#158 = DIRECTION ( 'NONE',  ( -1.000000000000000000, -0.0000000000000000000, -0.0000000000000000000 ) ) ;
#159 = PRESENTATION_STYLE_ASSIGNMENT (( #85 ) ) ;
#160 = DIRECTION ( 'NONE',  ( -0.0000000000000000000, -0.0000000000000000000, -1.000000000000000000 ) ) ;
#161 = STYLED_ITEM ( 'NONE', ( #159 ), #40 ) ;
#162 = FACE_OUTER_BOUND ( 'NONE', #55, .T. ) ;
#163 = APPLICATION_CONTEXT ( 'automotive_design' ) ;
#164 = DIRECTION ( 'NONE',  ( -0.0000000000000000000, -1.000000000000000000, -0.0000000000000000000 ) ) ;
#165 = VECTOR ( 'NONE', #160, 1000.000000000000000 ) ;
#166 = CARTESIAN_POINT ( 'NONE',  ( 25.00000000000000000, 25.00000000000000000, 0.6999999999999999600 ) ) ;
#167 = ORIENTED_EDGE ( 'NONE', *, *, #46, .T. ) ;
#168 = MANIFOLD_SOLID_BREP ( 'Boss-Extrude1', #9 ) ;
#169 = CARTESIAN_POINT ( 'NONE',  ( 0.0000000000000000000, 0.0000000000000000000, 0.6999999999999999600 ) ) ;
#170 = PLANE ( 'NONE',  #82 ) ;
#171 = ORIENTED_EDGE ( 'NONE', *, *, #114, .F. ) ;
#172 =( GEOMETRIC_REPRESENTATION_CONTEXT ( 3 ) GLOBAL_UNCERTAINTY_ASSIGNED_CONTEXT ( ( #96 ) ) GLOBAL_UNIT_ASSIGNED_CONTEXT ( ( #59, #73, #44 ) ) REPRESENTATION_CONTEXT ( 'NONE', 'WORKASPACE' ) );
#173 = ORIENTED_EDGE ( 'NONE', *, *, #76, .T. ) ;
#174 = DIRECTION ( 'NONE',  ( -1.000000000000000000, -0.0000000000000000000, -0.0000000000000000000 ) ) ;
#175 = CARTESIAN_POINT ( 'NONE',  ( 0.0000000000000000000, 25.00000000000000000, 0.0000000000000000000 ) ) ;
#176 = DIRECTION ( 'NONE',  ( 0.0000000000000000000, 1.000000000000000000, 0.0000000000000000000 ) ) ;
#177 = CARTESIAN_POINT ( 'NONE',  ( 0.0000000000000000000, 0.0000000000000000000, 0.6999999999999999600 ) ) ;
#178 = VECTOR ( 'NONE', #184, 1000.000000000000000 ) ;
#179 = CARTESIAN_POINT ( 'NONE',  ( 25.00000000000000000, 0.0000000000000000000, 0.6999999999999999600 ) ) ;
#180 = CARTESIAN_POINT ( 'NONE',  ( 0.0000000000000000000, 0.0000000000000000000, 0.0000000000000000000 ) ) ;
#181 = CARTESIAN_POINT ( 'NONE',  ( 25.00000000000000000, 25.00000000000000000, 0.0000000000000000000 ) ) ;
#182 = ORIENTED_EDGE ( 'NONE', *, *, #114, .T. ) ;
#183 = DIRECTION ( 'NONE',  ( -0.0000000000000000000, -0.0000000000000000000, -1.000000000000000000 ) ) ;
#184 = DIRECTION ( 'NONE',  ( 0.0000000000000000000, 1.000000000000000000, 0.0000000000000000000 ) ) ;
#185 = UNCERTAINTY_MEASURE_WITH_UNIT (LENGTH_MEASURE( 1.000000000000000100E-005 ), #68, 'distance_accuracy_value', 'NONE');
#186 = CARTESIAN_POINT ( 'NONE',  ( 0.0000000000000000000, 25.00000000000000000, 0.6999999999999999600 ) ) ;
#187 = DIRECTION ( 'NONE',  ( 0.0000000000000000000, 0.0000000000000000000, 1.000000000000000000 ) ) ;
#188 = ORIENTED_EDGE ( 'NONE', *, *, #12, .T. ) ;
#189 = DIRECTION ( 'NONE',  ( 1.000000000000000000, 0.0000000000000000000, 0.0000000000000000000 ) ) ;
#190 = FACE_OUTER_BOUND ( 'NONE', #75, .T. ) ;
#191 = EDGE_LOOP ( 'NONE', ( #153, #195, #36, #182 ) ) ;
#192 = CARTESIAN_POINT ( 'NONE',  ( 0.0000000000000000000, 0.0000000000000000000, 0.0000000000000000000 ) ) ;
#193 = PRODUCT ( 'step_48545', 'step_48545', '', ( #101 ) ) ;
#194 = APPLICATION_PROTOCOL_DEFINITION ( 'draft international standard', 'automotive_design', 1998, #163 ) ;
#195 = ORIENTED_EDGE ( 'NONE', *, *, #143, .F. ) ;
#196 = ORIENTED_EDGE ( 'NONE', *, *, #24, .F. ) ;
#197 = PRESENTATION_STYLE_ASSIGNMENT (( #139 ) ) ;
#198 = PRODUCT_DEFINITION_SHAPE ( 'NONE', 'NONE',  #145 ) ;
#199 = CARTESIAN_POINT ( 'NONE',  ( 0.0000000000000000000, 0.0000000000000000000, 0.6999999999999999600 ) ) ;
#200 = ORIENTED_EDGE ( 'NONE', *, *, #28, .T. ) ;
#201 = AXIS2_PLACEMENT_3D ( 'NONE', #72, #176, #29 ) ;
#202 = VERTEX_POINT ( 'NONE', #181 ) ;
ENDSEC;
END-ISO-10303-21;
