ISO-10303-21;
HEADER;
FILE_DESCRIPTION (( 'STEP AP203' ),
    '1' );
FILE_NAME ('36991_36995.step',
    '2017-09-06T15:14:36',
    ( '' ),
    ( '' ),
    'SwSTEP 2.0',
    'SolidWorks 2016',
    '' );
FILE_SCHEMA (( 'CONFIG_CONTROL_DESIGN' ));
ENDSEC;

DATA;
#1 = PERSON_AND_ORGANIZATION_ROLE ( 'design_owner' ) ;
#2 = CARTESIAN_POINT ( 'NONE',  ( -12.50000000000000000, 0.0000000000000000000, 0.5000000000000000000 ) ) ;
#3 = LOCAL_TIME ( 11, 14, 36.00000000000000000, #30 ) ;
#4 = CLOSED_SHELL ( 'NONE', ( #85, #135, #163, #149 ) ) ;
#5 = CIRCLE ( 'NONE', #8, 12.50000000000000000 ) ;
#6 = UNCERTAINTY_MEASURE_WITH_UNIT (LENGTH_MEASURE( 1.000000000000000100E-005 ), #69, 'distance_accuracy_value', 'NONE');
#7 = ORIENTED_EDGE ( 'NONE', *, *, #59, .F. ) ;
#8 = AXIS2_PLACEMENT_3D ( 'NONE', #40, #129, #53 ) ;
#9 = CALENDAR_DATE ( 2017, 6, 9 ) ;
#10 = DIRECTION ( 'NONE',  ( -1.000000000000000000, 0.0000000000000000000, 0.0000000000000000000 ) ) ;
#11 = DIRECTION ( 'NONE',  ( 0.0000000000000000000, 0.0000000000000000000, 1.000000000000000000 ) ) ;
#12 = PERSON_AND_ORGANIZATION ( #52, #91 ) ;
#13 = CARTESIAN_POINT ( 'NONE',  ( 12.50000000000000000, 1.530808498934191500E-015, 0.5000000000000000000 ) ) ;
#14 = CARTESIAN_POINT ( 'NONE',  ( 0.0000000000000000000, 0.0000000000000000000, 0.0000000000000000000 ) ) ;
#15 = CARTESIAN_POINT ( 'NONE',  ( 0.0000000000000000000, 0.0000000000000000000, 0.5000000000000000000 ) ) ;
#16 = CC_DESIGN_DATE_AND_TIME_ASSIGNMENT ( #62, #79, ( #81 ) ) ;
#17 = AXIS2_PLACEMENT_3D ( 'NONE', #131, #58, #82 ) ;
#18 = VERTEX_POINT ( 'NONE', #134 ) ;
#19 = AXIS2_PLACEMENT_3D ( 'NONE', #97, #24, #140 ) ;
#20 = CALENDAR_DATE ( 2017, 6, 9 ) ;
#21 = APPROVAL_DATE_TIME ( #49, #153 ) ;
#22 = SHAPE_DEFINITION_REPRESENTATION ( #44, #60 ) ;
#23 = LINE ( 'NONE', #13, #50 ) ;
#24 = DIRECTION ( 'NONE',  ( 0.0000000000000000000, 0.0000000000000000000, 1.000000000000000000 ) ) ;
#25 = MECHANICAL_CONTEXT ( 'NONE', #121, 'mechanical' ) ;
#26 = CC_DESIGN_PERSON_AND_ORGANIZATION_ASSIGNMENT ( #161, #1, ( #73 ) ) ;
#27 = PLANE ( 'NONE',  #61 ) ;
#28 = EDGE_LOOP ( 'NONE', ( #84, #165, #100, #32 ) ) ;
#29 = APPROVAL_STATUS ( 'not_yet_approved' ) ;
#30 = COORDINATED_UNIVERSAL_TIME_OFFSET ( 5, 0, .BEHIND. ) ;
#31 = EDGE_LOOP ( 'NONE', ( #7, #169, #106, #168 ) ) ;
#32 = ORIENTED_EDGE ( 'NONE', *, *, #65, .T. ) ;
#33 = CC_DESIGN_PERSON_AND_ORGANIZATION_ASSIGNMENT ( #45, #37, ( #138 ) ) ;
#34 = CALENDAR_DATE ( 2017, 6, 9 ) ;
#35 = AXIS2_PLACEMENT_3D ( 'NONE', #15, #145, #148 ) ;
#36 = EDGE_CURVE ( 'NONE', #41, #108, #130, .T. ) ;
#37 = PERSON_AND_ORGANIZATION_ROLE ( 'creator' ) ;
#38 = APPLICATION_PROTOCOL_DEFINITION ( 'international standard', 'config_control_design', 1994, #121 ) ;
#39 = CYLINDRICAL_SURFACE ( 'NONE', #89, 12.50000000000000000 ) ;
#40 = CARTESIAN_POINT ( 'NONE',  ( 0.0000000000000000000, 0.0000000000000000000, -0.5000000000000000000 ) ) ;
#41 = VERTEX_POINT ( 'NONE', #2 ) ;
#42 = DIRECTION ( 'NONE',  ( 1.000000000000000000, 0.0000000000000000000, -0.0000000000000000000 ) ) ;
#43 = APPROVAL_ROLE ( '' ) ;
#44 = PRODUCT_DEFINITION_SHAPE ( 'NONE', 'NONE',  #138 ) ;
#45 = PERSON_AND_ORGANIZATION ( #52, #91 ) ;
#46 = DATE_AND_TIME ( #9, #63 ) ;
#47 = PERSON_AND_ORGANIZATION ( #52, #91 ) ;
#48 = AXIS2_PLACEMENT_3D ( 'NONE', #111, #120, #133 ) ;
#49 = DATE_AND_TIME ( #139, #76 ) ;
#50 = VECTOR ( 'NONE', #109, 1000.000000000000000 ) ;
#51 = APPROVAL_STATUS ( 'not_yet_approved' ) ;
#52 = PERSON ( 'UNSPECIFIED', 'UNSPECIFIED', 'UNSPECIFIED', ('UNSPECIFIED'), ('UNSPECIFIED'), ('UNSPECIFIED') ) ;
#53 = DIRECTION ( 'NONE',  ( 1.000000000000000000, 0.0000000000000000000, 0.0000000000000000000 ) ) ;
#54 = APPROVAL ( #51, 'UNSPECIFIED' ) ;
#55 =( NAMED_UNIT ( * ) SI_UNIT ( $, .STERADIAN. ) SOLID_ANGLE_UNIT ( ) );
#56 = CARTESIAN_POINT ( 'NONE',  ( 0.0000000000000000000, 0.0000000000000000000, 0.5000000000000000000 ) ) ;
#57 = COORDINATED_UNIVERSAL_TIME_OFFSET ( 5, 0, .BEHIND. ) ;
#58 = DIRECTION ( 'NONE',  ( 0.0000000000000000000, 0.0000000000000000000, 1.000000000000000000 ) ) ;
#59 = EDGE_CURVE ( 'NONE', #108, #41, #142, .T. ) ;
#60 = ADVANCED_BREP_SHAPE_REPRESENTATION ( '36991_36995', ( #103, #75 ), #86 ) ;
#61 = AXIS2_PLACEMENT_3D ( 'NONE', #80, #11, #42 ) ;
#62 = DATE_AND_TIME ( #90, #3 ) ;
#63 = LOCAL_TIME ( 11, 14, 36.00000000000000000, #57 ) ;
#64 = CC_DESIGN_PERSON_AND_ORGANIZATION_ASSIGNMENT ( #152, #160, ( #81 ) ) ;
#65 = EDGE_CURVE ( 'NONE', #18, #94, #5, .T. ) ;
#66 = CC_DESIGN_SECURITY_CLASSIFICATION ( #81, ( #151 ) ) ;
#67 = DATE_AND_TIME ( #34, #92 ) ;
#68 = SECURITY_CLASSIFICATION_LEVEL ( 'unclassified' ) ;
#69 =( LENGTH_UNIT ( ) NAMED_UNIT ( * ) SI_UNIT ( .MILLI., .METRE. ) );
#70 = COORDINATED_UNIVERSAL_TIME_OFFSET ( 5, 0, .BEHIND. ) ;
#71 = DIRECTION ( 'NONE',  ( -0.0000000000000000000, -0.0000000000000000000, -1.000000000000000000 ) ) ;
#72 = CC_DESIGN_PERSON_AND_ORGANIZATION_ASSIGNMENT ( #47, #95, ( #151 ) ) ;
#73 = PRODUCT ( '36991_36995', '36991_36995', '', ( #25 ) ) ;
#74 = FACE_OUTER_BOUND ( 'NONE', #31, .T. ) ;
#75 = AXIS2_PLACEMENT_3D ( 'NONE', #14, #172, #118 ) ;
#76 = LOCAL_TIME ( 11, 14, 36.00000000000000000, #164 ) ;
#77 = EDGE_LOOP ( 'NONE', ( #125, #102 ) ) ;
#78 = CC_DESIGN_APPROVAL ( #54, ( #151 ) ) ;
#79 = DATE_TIME_ROLE ( 'classification_date' ) ;
#80 = CARTESIAN_POINT ( 'NONE',  ( 0.0000000000000000000, 0.0000000000000000000, 0.5000000000000000000 ) ) ;
#81 = SECURITY_CLASSIFICATION ( '', '', #68 ) ;
#82 = DIRECTION ( 'NONE',  ( 1.000000000000000000, 0.0000000000000000000, 0.0000000000000000000 ) ) ;
#83 = FACE_OUTER_BOUND ( 'NONE', #117, .T. ) ;
#84 = ORIENTED_EDGE ( 'NONE', *, *, #143, .F. ) ;
#85 = ADVANCED_FACE ( 'NONE', ( #74 ), #126, .T. ) ;
#86 =( GEOMETRIC_REPRESENTATION_CONTEXT ( 3 ) GLOBAL_UNCERTAINTY_ASSIGNED_CONTEXT ( ( #6 ) ) GLOBAL_UNIT_ASSIGNED_CONTEXT ( ( #69, #93, #55 ) ) REPRESENTATION_CONTEXT ( 'NONE', 'WORKASPACE' ) );
#87 = APPROVAL_DATE_TIME ( #67, #170 ) ;
#88 = PERSON_AND_ORGANIZATION ( #52, #91 ) ;
#89 = AXIS2_PLACEMENT_3D ( 'NONE', #96, #71, #10 ) ;
#90 = CALENDAR_DATE ( 2017, 6, 9 ) ;
#91 = ORGANIZATION ( 'UNSPECIFIED', 'UNSPECIFIED', '' ) ;
#92 = LOCAL_TIME ( 11, 14, 36.00000000000000000, #70 ) ;
#93 =( NAMED_UNIT ( * ) PLANE_ANGLE_UNIT ( ) SI_UNIT ( $, .RADIAN. ) );
#94 = VERTEX_POINT ( 'NONE', #144 ) ;
#95 = PERSON_AND_ORGANIZATION_ROLE ( 'design_supplier' ) ;
#96 = CARTESIAN_POINT ( 'NONE',  ( 0.0000000000000000000, 0.0000000000000000000, 0.5000000000000000000 ) ) ;
#97 = CARTESIAN_POINT ( 'NONE',  ( 0.0000000000000000000, 0.0000000000000000000, -0.5000000000000000000 ) ) ;
#98 = DIRECTION ( 'NONE',  ( 0.0000000000000000000, 0.0000000000000000000, 1.000000000000000000 ) ) ;
#99 = APPLICATION_CONTEXT ( 'configuration controlled 3d designs of mechanical parts and assemblies' ) ;
#100 = ORIENTED_EDGE ( 'NONE', *, *, #146, .T. ) ;
#101 = CC_DESIGN_PERSON_AND_ORGANIZATION_ASSIGNMENT ( #88, #128, ( #151 ) ) ;
#102 = ORIENTED_EDGE ( 'NONE', *, *, #156, .F. ) ;
#103 = MANIFOLD_SOLID_BREP ( 'Boss-Extrude1', #4 ) ;
#104 = PERSON_AND_ORGANIZATION ( #52, #91 ) ;
#105 = VECTOR ( 'NONE', #174, 1000.000000000000000 ) ;
#106 = ORIENTED_EDGE ( 'NONE', *, *, #156, .T. ) ;
#107 = LOCAL_TIME ( 11, 14, 36.00000000000000000, #136 ) ;
#108 = VERTEX_POINT ( 'NONE', #114 ) ;
#109 = DIRECTION ( 'NONE',  ( -0.0000000000000000000, -0.0000000000000000000, -1.000000000000000000 ) ) ;
#110 = PLANE ( 'NONE',  #19 ) ;
#111 = CARTESIAN_POINT ( 'NONE',  ( 0.0000000000000000000, 0.0000000000000000000, -0.5000000000000000000 ) ) ;
#112 = CARTESIAN_POINT ( 'NONE',  ( -12.50000000000000000, 0.0000000000000000000, 0.5000000000000000000 ) ) ;
#113 = APPLICATION_PROTOCOL_DEFINITION ( 'international standard', 'config_control_design', 1994, #99 ) ;
#114 = CARTESIAN_POINT ( 'NONE',  ( 12.50000000000000000, 1.530808498934191500E-015, 0.5000000000000000000 ) ) ;
#115 = FACE_OUTER_BOUND ( 'NONE', #77, .T. ) ;
#116 = DESIGN_CONTEXT ( 'detailed design', #99, 'design' ) ;
#117 = EDGE_LOOP ( 'NONE', ( #132, #166 ) ) ;
#118 = DIRECTION ( 'NONE',  ( 1.000000000000000000, 0.0000000000000000000, 0.0000000000000000000 ) ) ;
#119 = CIRCLE ( 'NONE', #48, 12.50000000000000000 ) ;
#120 = DIRECTION ( 'NONE',  ( 0.0000000000000000000, 0.0000000000000000000, 1.000000000000000000 ) ) ;
#121 = APPLICATION_CONTEXT ( 'configuration controlled 3d designs of mechanical parts and assemblies' ) ;
#122 = APPROVAL_DATE_TIME ( #157, #54 ) ;
#123 = DIRECTION ( 'NONE',  ( 1.000000000000000000, 0.0000000000000000000, 0.0000000000000000000 ) ) ;
#124 = PERSON_AND_ORGANIZATION ( #52, #91 ) ;
#125 = ORIENTED_EDGE ( 'NONE', *, *, #65, .F. ) ;
#126 = CYLINDRICAL_SURFACE ( 'NONE', #35, 12.50000000000000000 ) ;
#127 = CC_DESIGN_APPROVAL ( #170, ( #138 ) ) ;
#128 = PERSON_AND_ORGANIZATION_ROLE ( 'creator' ) ;
#129 = DIRECTION ( 'NONE',  ( 0.0000000000000000000, 0.0000000000000000000, 1.000000000000000000 ) ) ;
#130 = CIRCLE ( 'NONE', #17, 12.50000000000000000 ) ;
#131 = CARTESIAN_POINT ( 'NONE',  ( 0.0000000000000000000, 0.0000000000000000000, 0.5000000000000000000 ) ) ;
#132 = ORIENTED_EDGE ( 'NONE', *, *, #36, .T. ) ;
#133 = DIRECTION ( 'NONE',  ( 1.000000000000000000, 0.0000000000000000000, 0.0000000000000000000 ) ) ;
#134 = CARTESIAN_POINT ( 'NONE',  ( -12.50000000000000000, 0.0000000000000000000, -0.5000000000000000000 ) ) ;
#135 = ADVANCED_FACE ( 'NONE', ( #150 ), #39, .T. ) ;
#136 = COORDINATED_UNIVERSAL_TIME_OFFSET ( 5, 0, .BEHIND. ) ;
#137 = AXIS2_PLACEMENT_3D ( 'NONE', #56, #98, #123 ) ;
#138 = PRODUCT_DEFINITION ( 'UNKNOWN', '', #151, #116 ) ;
#139 = CALENDAR_DATE ( 2017, 6, 9 ) ;
#140 = DIRECTION ( 'NONE',  ( 1.000000000000000000, 0.0000000000000000000, -0.0000000000000000000 ) ) ;
#141 = APPROVAL_ROLE ( '' ) ;
#142 = CIRCLE ( 'NONE', #137, 12.50000000000000000 ) ;
#143 = EDGE_CURVE ( 'NONE', #108, #94, #23, .T. ) ;
#144 = CARTESIAN_POINT ( 'NONE',  ( 12.50000000000000000, 1.530808498934191500E-015, -0.5000000000000000000 ) ) ;
#145 = DIRECTION ( 'NONE',  ( -0.0000000000000000000, -0.0000000000000000000, -1.000000000000000000 ) ) ;
#146 = EDGE_CURVE ( 'NONE', #41, #18, #167, .T. ) ;
#147 = DATE_TIME_ROLE ( 'creation_date' ) ;
#148 = DIRECTION ( 'NONE',  ( -1.000000000000000000, 0.0000000000000000000, 0.0000000000000000000 ) ) ;
#149 = ADVANCED_FACE ( 'NONE', ( #115 ), #110, .F. ) ;
#150 = FACE_OUTER_BOUND ( 'NONE', #28, .T. ) ;
#151 = PRODUCT_DEFINITION_FORMATION_WITH_SPECIFIED_SOURCE ( 'ANY', '', #73, .NOT_KNOWN. ) ;
#152 = PERSON_AND_ORGANIZATION ( #52, #91 ) ;
#153 = APPROVAL ( #171, 'UNSPECIFIED' ) ;
#154 = APPROVAL_PERSON_ORGANIZATION ( #104, #153, #141 ) ;
#155 = APPROVAL_PERSON_ORGANIZATION ( #124, #170, #43 ) ;
#156 = EDGE_CURVE ( 'NONE', #94, #18, #119, .T. ) ;
#157 = DATE_AND_TIME ( #20, #107 ) ;
#158 = PRODUCT_RELATED_PRODUCT_CATEGORY ( 'detail', '', ( #73 ) ) ;
#159 = APPROVAL_ROLE ( '' ) ;
#160 = PERSON_AND_ORGANIZATION_ROLE ( 'classification_officer' ) ;
#161 = PERSON_AND_ORGANIZATION ( #52, #91 ) ;
#162 = CC_DESIGN_APPROVAL ( #153, ( #81 ) ) ;
#163 = ADVANCED_FACE ( 'NONE', ( #83 ), #27, .T. ) ;
#164 = COORDINATED_UNIVERSAL_TIME_OFFSET ( 5, 0, .BEHIND. ) ;
#165 = ORIENTED_EDGE ( 'NONE', *, *, #36, .F. ) ;
#166 = ORIENTED_EDGE ( 'NONE', *, *, #59, .T. ) ;
#167 = LINE ( 'NONE', #112, #105 ) ;
#168 = ORIENTED_EDGE ( 'NONE', *, *, #146, .F. ) ;
#169 = ORIENTED_EDGE ( 'NONE', *, *, #143, .T. ) ;
#170 = APPROVAL ( #29, 'UNSPECIFIED' ) ;
#171 = APPROVAL_STATUS ( 'not_yet_approved' ) ;
#172 = DIRECTION ( 'NONE',  ( 0.0000000000000000000, 0.0000000000000000000, 1.000000000000000000 ) ) ;
#173 = CC_DESIGN_DATE_AND_TIME_ASSIGNMENT ( #46, #147, ( #138 ) ) ;
#174 = DIRECTION ( 'NONE',  ( -0.0000000000000000000, -0.0000000000000000000, -1.000000000000000000 ) ) ;
#175 = APPROVAL_PERSON_ORGANIZATION ( #12, #54, #159 ) ;
ENDSEC;
END-ISO-10303-21;
