ISO-10303-21;
HEADER;
FILE_DESCRIPTION (( 'STEP AP203' ),
    '1' );
FILE_NAME ('Web Model 43362_61260.step',
    '2017-04-12T16:02:05',
    ( '' ),
    ( '' ),
    'SwSTEP 2.0',
    'SolidWorks 2016',
    '' );
FILE_SCHEMA (( 'CONFIG_CONTROL_DESIGN' ));
ENDSEC;

DATA;
#1 = PRODUCT_DEFINITION_FORMATION_WITH_SPECIFIED_SOURCE ( 'ANY', '', #98, .NOT_KNOWN. ) ;
#2 = ORIENTED_EDGE ( 'NONE', *, *, #5, .F. ) ;
#3 = LINE ( 'NONE', #82, #102 ) ;
#4 = COORDINATED_UNIVERSAL_TIME_OFFSET ( 5, 0, .BEHIND. ) ;
#5 = EDGE_CURVE ( 'NONE', #153, #15, #65, .T. ) ;
#6 = ORIENTED_EDGE ( 'NONE', *, *, #33, .T. ) ;
#7 = ORIENTED_EDGE ( 'NONE', *, *, #194, .F. ) ;
#8 = ADVANCED_FACE ( 'NONE', ( #40 ), #32, .F. ) ;
#9 = APPROVAL_STATUS ( 'not_yet_approved' ) ;
#10 = DIRECTION ( 'NONE',  ( 0.0000000000000000000, -1.000000000000000000, 0.0000000000000000000 ) ) ;
#11 = CARTESIAN_POINT ( 'NONE',  ( -63.50000000000000000, 89.00000000000000000, 1.500000000000000000 ) ) ;
#12 = DIRECTION ( 'NONE',  ( 1.000000000000000000, 0.0000000000000000000, 0.0000000000000000000 ) ) ;
#13 = APPROVAL_PERSON_ORGANIZATION ( #130, #190, #163 ) ;
#14 = DIRECTION ( 'NONE',  ( -0.0000000000000000000, 0.0000000000000000000, 1.000000000000000000 ) ) ;
#15 = VERTEX_POINT ( 'NONE', #193 ) ;
#16 = VERTEX_POINT ( 'NONE', #155 ) ;
#17 = APPROVAL ( #214, 'UNSPECIFIED' ) ;
#18 = CARTESIAN_POINT ( 'NONE',  ( -63.50000000000000000, -89.00000000000000000, 1.500000000000000000 ) ) ;
#19 = AXIS2_PLACEMENT_3D ( 'NONE', #197, #110, #211 ) ;
#20 = EDGE_CURVE ( 'NONE', #220, #153, #184, .T. ) ;
#21 = VECTOR ( 'NONE', #55, 1000.000000000000000 ) ;
#22 = ORIENTED_EDGE ( 'NONE', *, *, #150, .T. ) ;
#23 = VECTOR ( 'NONE', #53, 1000.000000000000000 ) ;
#24 = PRODUCT_DEFINITION_SHAPE ( 'NONE', 'NONE',  #113 ) ;
#25 = ORIENTED_EDGE ( 'NONE', *, *, #167, .F. ) ;
#26 = APPROVAL_ROLE ( '' ) ;
#27 = CARTESIAN_POINT ( 'NONE',  ( -63.50000000000000000, -89.00000000000000000, 1.500000000000000000 ) ) ;
#28 = CC_DESIGN_APPROVAL ( #17, ( #1 ) ) ;
#29 = ORIENTED_EDGE ( 'NONE', *, *, #159, .F. ) ;
#30 =( GEOMETRIC_REPRESENTATION_CONTEXT ( 3 ) GLOBAL_UNCERTAINTY_ASSIGNED_CONTEXT ( ( #61 ) ) GLOBAL_UNIT_ASSIGNED_CONTEXT ( ( #64, #208, #118 ) ) REPRESENTATION_CONTEXT ( 'NONE', 'WORKASPACE' ) );
#31 = LINE ( 'NONE', #38, #71 ) ;
#32 = PLANE ( 'NONE',  #73 ) ;
#33 = EDGE_CURVE ( 'NONE', #15, #16, #3, .T. ) ;
#34 = ORIENTED_EDGE ( 'NONE', *, *, #219, .T. ) ;
#35 = APPROVAL_STATUS ( 'not_yet_approved' ) ;
#36 = CALENDAR_DATE ( 2017, 12, 4 ) ;
#37 = CARTESIAN_POINT ( 'NONE',  ( -63.50000000000000000, 89.00000000000000000, 1.500000000000000000 ) ) ;
#38 = CARTESIAN_POINT ( 'NONE',  ( -63.50000000000000000, 89.00000000000000000, 1.500000000000000000 ) ) ;
#39 = ORIENTED_EDGE ( 'NONE', *, *, #167, .T. ) ;
#40 = FACE_OUTER_BOUND ( 'NONE', #202, .T. ) ;
#41 = CC_DESIGN_PERSON_AND_ORGANIZATION_ASSIGNMENT ( #48, #223, ( #1 ) ) ;
#42 = AXIS2_PLACEMENT_3D ( 'NONE', #37, #175, #125 ) ;
#43 = ORGANIZATION ( 'UNSPECIFIED', 'UNSPECIFIED', '' ) ;
#44 = LINE ( 'NONE', #18, #47 ) ;
#45 = ORIENTED_EDGE ( 'NONE', *, *, #228, .T. ) ;
#46 = CALENDAR_DATE ( 2017, 12, 4 ) ;
#47 = VECTOR ( 'NONE', #57, 1000.000000000000000 ) ;
#48 = PERSON_AND_ORGANIZATION ( #136, #43 ) ;
#49 = PLANE ( 'NONE',  #225 ) ;
#50 = CARTESIAN_POINT ( 'NONE',  ( -63.50000000000000000, 89.00000000000000000, 1.500000000000000000 ) ) ;
#51 = EDGE_LOOP ( 'NONE', ( #6, #25, #63, #129 ) ) ;
#52 = ORIENTED_EDGE ( 'NONE', *, *, #206, .F. ) ;
#53 = DIRECTION ( 'NONE',  ( 0.0000000000000000000, -1.000000000000000000, 0.0000000000000000000 ) ) ;
#54 = PLANE ( 'NONE',  #42 ) ;
#55 = DIRECTION ( 'NONE',  ( -0.0000000000000000000, -0.0000000000000000000, -1.000000000000000000 ) ) ;
#56 = ORIENTED_EDGE ( 'NONE', *, *, #219, .F. ) ;
#57 = DIRECTION ( 'NONE',  ( 1.000000000000000000, 0.0000000000000000000, 0.0000000000000000000 ) ) ;
#58 = PERSON_AND_ORGANIZATION ( #136, #43 ) ;
#59 = CC_DESIGN_PERSON_AND_ORGANIZATION_ASSIGNMENT ( #157, #171, ( #1 ) ) ;
#60 = PLANE ( 'NONE',  #19 ) ;
#61 = UNCERTAINTY_MEASURE_WITH_UNIT (LENGTH_MEASURE( 1.000000000000000100E-005 ), #64, 'distance_accuracy_value', 'NONE');
#62 = CLOSED_SHELL ( 'NONE', ( #172, #8, #237, #152, #123, #75 ) ) ;
#63 = ORIENTED_EDGE ( 'NONE', *, *, #183, .F. ) ;
#64 =( LENGTH_UNIT ( ) NAMED_UNIT ( * ) SI_UNIT ( .MILLI., .METRE. ) );
#65 = LINE ( 'NONE', #27, #21 ) ;
#66 = VERTEX_POINT ( 'NONE', #72 ) ;
#67 = APPLICATION_PROTOCOL_DEFINITION ( 'international standard', 'config_control_design', 1994, #189 ) ;
#68 = SECURITY_CLASSIFICATION ( '', '', #97 ) ;
#69 = CARTESIAN_POINT ( 'NONE',  ( 63.50000000000000000, 89.00000000000000000, 1.500000000000000000 ) ) ;
#70 = CARTESIAN_POINT ( 'NONE',  ( -63.50000000000000000, -89.00000000000000000, 1.500000000000000000 ) ) ;
#71 = VECTOR ( 'NONE', #233, 1000.000000000000000 ) ;
#72 = CARTESIAN_POINT ( 'NONE',  ( 63.50000000000000000, 89.00000000000000000, -1.500000000000000000 ) ) ;
#73 = AXIS2_PLACEMENT_3D ( 'NONE', #50, #10, #103 ) ;
#74 = LINE ( 'NONE', #231, #154 ) ;
#75 = ADVANCED_FACE ( 'NONE', ( #131 ), #126, .F. ) ;
#76 = VECTOR ( 'NONE', #173, 1000.000000000000000 ) ;
#77 = CC_DESIGN_PERSON_AND_ORGANIZATION_ASSIGNMENT ( #221, #117, ( #68 ) ) ;
#78 = MANIFOLD_SOLID_BREP ( 'Boss-Extrude1', #62 ) ;
#79 = LINE ( 'NONE', #88, #234 ) ;
#80 = DATE_AND_TIME ( #164, #185 ) ;
#81 = COORDINATED_UNIVERSAL_TIME_OFFSET ( 5, 0, .BEHIND. ) ;
#82 = CARTESIAN_POINT ( 'NONE',  ( -63.50000000000000000, -89.00000000000000000, -1.500000000000000000 ) ) ;
#83 = DATE_AND_TIME ( #169, #89 ) ;
#84 = APPROVAL_ROLE ( '' ) ;
#85 = CARTESIAN_POINT ( 'NONE',  ( -63.50000000000000000, 89.00000000000000000, -1.500000000000000000 ) ) ;
#86 = DIRECTION ( 'NONE',  ( -0.0000000000000000000, -0.0000000000000000000, -1.000000000000000000 ) ) ;
#87 = CC_DESIGN_DATE_AND_TIME_ASSIGNMENT ( #83, #156, ( #68 ) ) ;
#88 = CARTESIAN_POINT ( 'NONE',  ( 63.50000000000000000, -89.00000000000000000, 1.500000000000000000 ) ) ;
#89 = LOCAL_TIME ( 12, 2, 5.000000000000000000, #4 ) ;
#90 = AXIS2_PLACEMENT_3D ( 'NONE', #119, #120, #122 ) ;
#91 = APPROVAL_PERSON_ORGANIZATION ( #182, #17, #84 ) ;
#92 = ORIENTED_EDGE ( 'NONE', *, *, #150, .F. ) ;
#93 = LINE ( 'NONE', #217, #170 ) ;
#94 = LINE ( 'NONE', #227, #146 ) ;
#95 = PERSON_AND_ORGANIZATION ( #136, #43 ) ;
#96 = ORIENTED_EDGE ( 'NONE', *, *, #194, .T. ) ;
#97 = SECURITY_CLASSIFICATION_LEVEL ( 'unclassified' ) ;
#98 = PRODUCT ( 'Web Model 43362_61260', 'Web Model 43362_61260', '', ( #138 ) ) ;
#99 = APPROVAL ( #9, 'UNSPECIFIED' ) ;
#100 = CC_DESIGN_PERSON_AND_ORGANIZATION_ASSIGNMENT ( #95, #158, ( #98 ) ) ;
#101 = DIRECTION ( 'NONE',  ( 1.000000000000000000, 0.0000000000000000000, 0.0000000000000000000 ) ) ;
#102 = VECTOR ( 'NONE', #101, 1000.000000000000000 ) ;
#103 = DIRECTION ( 'NONE',  ( 0.0000000000000000000, -0.0000000000000000000, -1.000000000000000000 ) ) ;
#104 = COORDINATED_UNIVERSAL_TIME_OFFSET ( 5, 0, .BEHIND. ) ;
#105 = DIRECTION ( 'NONE',  ( 0.0000000000000000000, -0.0000000000000000000, 1.000000000000000000 ) ) ;
#106 = CARTESIAN_POINT ( 'NONE',  ( -63.50000000000000000, 89.00000000000000000, -1.500000000000000000 ) ) ;
#107 = DIRECTION ( 'NONE',  ( -1.000000000000000000, -0.0000000000000000000, -0.0000000000000000000 ) ) ;
#108 = DIRECTION ( 'NONE',  ( -0.0000000000000000000, 0.0000000000000000000, 1.000000000000000000 ) ) ;
#109 = DIRECTION ( 'NONE',  ( -1.000000000000000000, -0.0000000000000000000, -0.0000000000000000000 ) ) ;
#110 = DIRECTION ( 'NONE',  ( -1.000000000000000000, 0.0000000000000000000, 0.0000000000000000000 ) ) ;
#111 = VECTOR ( 'NONE', #143, 1000.000000000000000 ) ;
#112 = CC_DESIGN_APPROVAL ( #99, ( #68 ) ) ;
#113 = PRODUCT_DEFINITION ( 'UNKNOWN', '', #1, #168 ) ;
#114 = LOCAL_TIME ( 12, 2, 5.000000000000000000, #176 ) ;
#115 = COORDINATED_UNIVERSAL_TIME_OFFSET ( 5, 0, .BEHIND. ) ;
#116 = EDGE_LOOP ( 'NONE', ( #128, #29, #92, #39 ) ) ;
#117 = PERSON_AND_ORGANIZATION_ROLE ( 'classification_officer' ) ;
#118 =( NAMED_UNIT ( * ) SI_UNIT ( $, .STERADIAN. ) SOLID_ANGLE_UNIT ( ) );
#119 = CARTESIAN_POINT ( 'NONE',  ( 0.0000000000000000000, 0.0000000000000000000, 0.0000000000000000000 ) ) ;
#120 = DIRECTION ( 'NONE',  ( 0.0000000000000000000, 0.0000000000000000000, 1.000000000000000000 ) ) ;
#121 = ADVANCED_BREP_SHAPE_REPRESENTATION ( 'Web Model 43362_61260', ( #78, #90 ), #30 ) ;
#122 = DIRECTION ( 'NONE',  ( 1.000000000000000000, 0.0000000000000000000, 0.0000000000000000000 ) ) ;
#123 = ADVANCED_FACE ( 'NONE', ( #218 ), #181, .T. ) ;
#124 = DIRECTION ( 'NONE',  ( 0.0000000000000000000, 1.000000000000000000, 0.0000000000000000000 ) ) ;
#125 = DIRECTION ( 'NONE',  ( -0.0000000000000000000, 0.0000000000000000000, -1.000000000000000000 ) ) ;
#126 = PLANE ( 'NONE',  #180 ) ;
#127 = CC_DESIGN_SECURITY_CLASSIFICATION ( #68, ( #1 ) ) ;
#128 = ORIENTED_EDGE ( 'NONE', *, *, #148, .T. ) ;
#129 = ORIENTED_EDGE ( 'NONE', *, *, #5, .T. ) ;
#130 = PERSON_AND_ORGANIZATION ( #136, #43 ) ;
#131 = FACE_OUTER_BOUND ( 'NONE', #147, .T. ) ;
#132 = VERTEX_POINT ( 'NONE', #137 ) ;
#133 = DATE_AND_TIME ( #46, #207 ) ;
#134 = PRODUCT_RELATED_PRODUCT_CATEGORY ( 'detail', '', ( #98 ) ) ;
#135 = VERTEX_POINT ( 'NONE', #160 ) ;
#136 = PERSON ( 'UNSPECIFIED', 'UNSPECIFIED', 'UNSPECIFIED', ('UNSPECIFIED'), ('UNSPECIFIED'), ('UNSPECIFIED') ) ;
#137 = CARTESIAN_POINT ( 'NONE',  ( 63.50000000000000000, -89.00000000000000000, 1.500000000000000000 ) ) ;
#138 = MECHANICAL_CONTEXT ( 'NONE', #189, 'mechanical' ) ;
#139 = VERTEX_POINT ( 'NONE', #85 ) ;
#140 = DIRECTION ( 'NONE',  ( -0.0000000000000000000, 1.000000000000000000, -0.0000000000000000000 ) ) ;
#141 = APPROVAL_DATE_TIME ( #201, #17 ) ;
#142 = PERSON_AND_ORGANIZATION_ROLE ( 'creator' ) ;
#143 = DIRECTION ( 'NONE',  ( 0.0000000000000000000, -1.000000000000000000, 0.0000000000000000000 ) ) ;
#144 = ORIENTED_EDGE ( 'NONE', *, *, #148, .F. ) ;
#145 = CARTESIAN_POINT ( 'NONE',  ( 0.0000000000000000000, 0.0000000000000000000, -1.500000000000000000 ) ) ;
#146 = VECTOR ( 'NONE', #86, 1000.000000000000000 ) ;
#147 = EDGE_LOOP ( 'NONE', ( #144, #166, #198, #7 ) ) ;
#148 = EDGE_CURVE ( 'NONE', #16, #66, #226, .T. ) ;
#149 = PERSON_AND_ORGANIZATION ( #136, #43 ) ;
#150 = EDGE_CURVE ( 'NONE', #132, #135, #178, .T. ) ;
#151 = ORIENTED_EDGE ( 'NONE', *, *, #159, .T. ) ;
#152 = ADVANCED_FACE ( 'NONE', ( #200 ), #49, .F. ) ;
#153 = VERTEX_POINT ( 'NONE', #70 ) ;
#154 = VECTOR ( 'NONE', #109, 1000.000000000000000 ) ;
#155 = CARTESIAN_POINT ( 'NONE',  ( 63.50000000000000000, -89.00000000000000000, -1.500000000000000000 ) ) ;
#156 = DATE_TIME_ROLE ( 'classification_date' ) ;
#157 = PERSON_AND_ORGANIZATION ( #136, #43 ) ;
#158 = PERSON_AND_ORGANIZATION_ROLE ( 'design_owner' ) ;
#159 = EDGE_CURVE ( 'NONE', #135, #66, #94, .T. ) ;
#160 = CARTESIAN_POINT ( 'NONE',  ( 63.50000000000000000, 89.00000000000000000, 1.500000000000000000 ) ) ;
#161 = APPLICATION_PROTOCOL_DEFINITION ( 'international standard', 'config_control_design', 1994, #192 ) ;
#162 = APPROVAL_DATE_TIME ( #133, #99 ) ;
#163 = APPROVAL_ROLE ( '' ) ;
#164 = CALENDAR_DATE ( 2017, 12, 4 ) ;
#165 = APPROVAL_PERSON_ORGANIZATION ( #58, #99, #26 ) ;
#166 = ORIENTED_EDGE ( 'NONE', *, *, #33, .F. ) ;
#167 = EDGE_CURVE ( 'NONE', #132, #16, #79, .T. ) ;
#168 = DESIGN_CONTEXT ( 'detailed design', #192, 'design' ) ;
#169 = CALENDAR_DATE ( 2017, 12, 4 ) ;
#170 = VECTOR ( 'NONE', #107, 1000.000000000000000 ) ;
#171 = PERSON_AND_ORGANIZATION_ROLE ( 'design_supplier' ) ;
#172 = ADVANCED_FACE ( 'NONE', ( #196 ), #60, .F. ) ;
#173 = DIRECTION ( 'NONE',  ( -0.0000000000000000000, 1.000000000000000000, -0.0000000000000000000 ) ) ;
#174 = CARTESIAN_POINT ( 'NONE',  ( 63.50000000000000000, 89.00000000000000000, -1.500000000000000000 ) ) ;
#175 = DIRECTION ( 'NONE',  ( 1.000000000000000000, 0.0000000000000000000, -0.0000000000000000000 ) ) ;
#176 = COORDINATED_UNIVERSAL_TIME_OFFSET ( 5, 0, .BEHIND. ) ;
#177 = DATE_TIME_ROLE ( 'creation_date' ) ;
#178 = LINE ( 'NONE', #69, #76 ) ;
#179 = CARTESIAN_POINT ( 'NONE',  ( -63.50000000000000000, 89.00000000000000000, 1.500000000000000000 ) ) ;
#180 = AXIS2_PLACEMENT_3D ( 'NONE', #145, #108, #215 ) ;
#181 = PLANE ( 'NONE',  #204 ) ;
#182 = PERSON_AND_ORGANIZATION ( #136, #43 ) ;
#183 = EDGE_CURVE ( 'NONE', #153, #132, #44, .T. ) ;
#184 = LINE ( 'NONE', #11, #23 ) ;
#185 = LOCAL_TIME ( 12, 2, 5.000000000000000000, #104 ) ;
#186 = VECTOR ( 'NONE', #140, 1000.000000000000000 ) ;
#187 = ORIENTED_EDGE ( 'NONE', *, *, #20, .T. ) ;
#188 = FACE_OUTER_BOUND ( 'NONE', #209, .T. ) ;
#189 = APPLICATION_CONTEXT ( 'configuration controlled 3d designs of mechanical parts and assemblies' ) ;
#190 = APPROVAL ( #35, 'UNSPECIFIED' ) ;
#191 = APPROVAL_DATE_TIME ( #80, #190 ) ;
#192 = APPLICATION_CONTEXT ( 'configuration controlled 3d designs of mechanical parts and assemblies' ) ;
#193 = CARTESIAN_POINT ( 'NONE',  ( -63.50000000000000000, -89.00000000000000000, -1.500000000000000000 ) ) ;
#194 = EDGE_CURVE ( 'NONE', #66, #139, #93, .T. ) ;
#195 = SHAPE_DEFINITION_REPRESENTATION ( #24, #121 ) ;
#196 = FACE_OUTER_BOUND ( 'NONE', #116, .T. ) ;
#197 = CARTESIAN_POINT ( 'NONE',  ( 63.50000000000000000, 89.00000000000000000, 1.500000000000000000 ) ) ;
#198 = ORIENTED_EDGE ( 'NONE', *, *, #228, .F. ) ;
#199 = CARTESIAN_POINT ( 'NONE',  ( 0.0000000000000000000, 0.0000000000000000000, 1.500000000000000000 ) ) ;
#200 = FACE_OUTER_BOUND ( 'NONE', #51, .T. ) ;
#201 = DATE_AND_TIME ( #222, #114 ) ;
#202 = EDGE_LOOP ( 'NONE', ( #96, #52, #56, #151 ) ) ;
#203 = CC_DESIGN_APPROVAL ( #190, ( #113 ) ) ;
#204 = AXIS2_PLACEMENT_3D ( 'NONE', #199, #14, #12 ) ;
#205 = LOCAL_TIME ( 12, 2, 5.000000000000000000, #81 ) ;
#206 = EDGE_CURVE ( 'NONE', #220, #139, #31, .T. ) ;
#207 = LOCAL_TIME ( 12, 2, 5.000000000000000000, #115 ) ;
#208 =( NAMED_UNIT ( * ) PLANE_ANGLE_UNIT ( ) SI_UNIT ( $, .RADIAN. ) );
#209 = EDGE_LOOP ( 'NONE', ( #45, #2, #232, #235 ) ) ;
#210 = CARTESIAN_POINT ( 'NONE',  ( -63.50000000000000000, -89.00000000000000000, 1.500000000000000000 ) ) ;
#211 = DIRECTION ( 'NONE',  ( 0.0000000000000000000, 0.0000000000000000000, 1.000000000000000000 ) ) ;
#212 = EDGE_LOOP ( 'NONE', ( #22, #34, #187, #213 ) ) ;
#213 = ORIENTED_EDGE ( 'NONE', *, *, #183, .T. ) ;
#214 = APPROVAL_STATUS ( 'not_yet_approved' ) ;
#215 = DIRECTION ( 'NONE',  ( 1.000000000000000000, 0.0000000000000000000, 0.0000000000000000000 ) ) ;
#216 = CC_DESIGN_PERSON_AND_ORGANIZATION_ASSIGNMENT ( #149, #142, ( #113 ) ) ;
#217 = CARTESIAN_POINT ( 'NONE',  ( -63.50000000000000000, 89.00000000000000000, -1.500000000000000000 ) ) ;
#218 = FACE_OUTER_BOUND ( 'NONE', #212, .T. ) ;
#219 = EDGE_CURVE ( 'NONE', #135, #220, #74, .T. ) ;
#220 = VERTEX_POINT ( 'NONE', #179 ) ;
#221 = PERSON_AND_ORGANIZATION ( #136, #43 ) ;
#222 = CALENDAR_DATE ( 2017, 12, 4 ) ;
#223 = PERSON_AND_ORGANIZATION_ROLE ( 'creator' ) ;
#224 = CC_DESIGN_DATE_AND_TIME_ASSIGNMENT ( #229, #177, ( #113 ) ) ;
#225 = AXIS2_PLACEMENT_3D ( 'NONE', #210, #124, #105 ) ;
#226 = LINE ( 'NONE', #174, #186 ) ;
#227 = CARTESIAN_POINT ( 'NONE',  ( 63.50000000000000000, 89.00000000000000000, 1.500000000000000000 ) ) ;
#228 = EDGE_CURVE ( 'NONE', #139, #15, #236, .T. ) ;
#229 = DATE_AND_TIME ( #36, #205 ) ;
#230 = DIRECTION ( 'NONE',  ( -0.0000000000000000000, -0.0000000000000000000, -1.000000000000000000 ) ) ;
#231 = CARTESIAN_POINT ( 'NONE',  ( -63.50000000000000000, 89.00000000000000000, 1.500000000000000000 ) ) ;
#232 = ORIENTED_EDGE ( 'NONE', *, *, #20, .F. ) ;
#233 = DIRECTION ( 'NONE',  ( -0.0000000000000000000, -0.0000000000000000000, -1.000000000000000000 ) ) ;
#234 = VECTOR ( 'NONE', #230, 1000.000000000000000 ) ;
#235 = ORIENTED_EDGE ( 'NONE', *, *, #206, .T. ) ;
#236 = LINE ( 'NONE', #106, #111 ) ;
#237 = ADVANCED_FACE ( 'NONE', ( #188 ), #54, .F. ) ;
ENDSEC;
END-ISO-10303-21;
