ISO-10303-21;
HEADER;
FILE_DESCRIPTION (( 'STEP AP203' ),
    '1' );
FILE_NAME ('Web Model 48415_48415.step',
    '2017-04-10T17:04:30',
    ( '' ),
    ( '' ),
    'SwSTEP 2.0',
    'SolidWorks 2016',
    '' );
FILE_SCHEMA (( 'CONFIG_CONTROL_DESIGN' ));
ENDSEC;

DATA;
#1 = FACE_OUTER_BOUND ( 'NONE', #59, .T. ) ;
#2 = ORIENTED_EDGE ( 'NONE', *, *, #179, .F. ) ;
#3 = DIRECTION ( 'NONE',  ( -1.000000000000000000, 0.0000000000000000000, -0.0000000000000000000 ) ) ;
#4 = DESIGN_CONTEXT ( 'detailed design', #25, 'design' ) ;
#5 = PERSON_AND_ORGANIZATION ( #54, #13 ) ;
#6 = VERTEX_POINT ( 'NONE', #176 ) ;
#7 = ORIENTED_EDGE ( 'NONE', *, *, #27, .T. ) ;
#8 = LINE ( 'NONE', #102, #169 ) ;
#9 = ORIENTED_EDGE ( 'NONE', *, *, #179, .T. ) ;
#10 = CALENDAR_DATE ( 2017, 10, 4 ) ;
#11 = LINE ( 'NONE', #231, #111 ) ;
#12 = CC_DESIGN_APPROVAL ( #235, ( #225 ) ) ;
#13 = ORGANIZATION ( 'UNSPECIFIED', 'UNSPECIFIED', '' ) ;
#14 = EDGE_LOOP ( 'NONE', ( #106, #205, #50, #9 ) ) ;
#15 =( NAMED_UNIT ( * ) PLANE_ANGLE_UNIT ( ) SI_UNIT ( $, .RADIAN. ) );
#16 = VERTEX_POINT ( 'NONE', #49 ) ;
#17 = APPROVAL_STATUS ( 'not_yet_approved' ) ;
#18 = DATE_AND_TIME ( #69, #120 ) ;
#19 = CARTESIAN_POINT ( 'NONE',  ( 37.50000000000000000, -37.50000000000000000, -1.500000000000000000 ) ) ;
#20 = ADVANCED_FACE ( 'NONE', ( #200 ), #29, .F. ) ;
#21 = VECTOR ( 'NONE', #76, 1000.000000000000000 ) ;
#22 = APPROVAL_DATE_TIME ( #77, #177 ) ;
#23 = CC_DESIGN_PERSON_AND_ORGANIZATION_ASSIGNMENT ( #110, #143, ( #225 ) ) ;
#24 = AXIS2_PLACEMENT_3D ( 'NONE', #153, #93, #3 ) ;
#25 = APPLICATION_CONTEXT ( 'configuration controlled 3d designs of mechanical parts and assemblies' ) ;
#26 = APPROVAL_PERSON_ORGANIZATION ( #83, #177, #219 ) ;
#27 = EDGE_CURVE ( 'NONE', #232, #72, #8, .T. ) ;
#28 = LINE ( 'NONE', #197, #223 ) ;
#29 = PLANE ( 'NONE',  #146 ) ;
#30 = DIRECTION ( 'NONE',  ( 0.0000000000000000000, 0.0000000000000000000, 1.000000000000000000 ) ) ;
#31 = AXIS2_PLACEMENT_3D ( 'NONE', #233, #34, #97 ) ;
#32 = CARTESIAN_POINT ( 'NONE',  ( -37.50000000000000000, -37.50000000000000000, -1.500000000000000000 ) ) ;
#33 = EDGE_CURVE ( 'NONE', #163, #75, #28, .T. ) ;
#34 = DIRECTION ( 'NONE',  ( 0.0000000000000000000, -1.000000000000000000, 0.0000000000000000000 ) ) ;
#35 = ORIENTED_EDGE ( 'NONE', *, *, #57, .F. ) ;
#36 = CC_DESIGN_PERSON_AND_ORGANIZATION_ASSIGNMENT ( #58, #74, ( #225 ) ) ;
#37 = VECTOR ( 'NONE', #53, 1000.000000000000000 ) ;
#38 = VECTOR ( 'NONE', #181, 1000.000000000000000 ) ;
#39 = CARTESIAN_POINT ( 'NONE',  ( 37.50000000000000000, -37.50000000000000000, 1.500000000000000000 ) ) ;
#40 = CALENDAR_DATE ( 2017, 10, 4 ) ;
#41 = CARTESIAN_POINT ( 'NONE',  ( -37.50000000000000000, 37.50000000000000000, 1.500000000000000000 ) ) ;
#42 = ORIENTED_EDGE ( 'NONE', *, *, #224, .F. ) ;
#43 = CARTESIAN_POINT ( 'NONE',  ( -37.50000000000000000, -37.50000000000000000, 1.500000000000000000 ) ) ;
#44 = DIRECTION ( 'NONE',  ( 0.0000000000000000000, 0.0000000000000000000, -1.000000000000000000 ) ) ;
#45 = PLANE ( 'NONE',  #80 ) ;
#46 = DATE_AND_TIME ( #103, #150 ) ;
#47 = DIRECTION ( 'NONE',  ( 1.000000000000000000, 0.0000000000000000000, 0.0000000000000000000 ) ) ;
#48 = SECURITY_CLASSIFICATION ( '', '', #96 ) ;
#49 = CARTESIAN_POINT ( 'NONE',  ( -37.50000000000000000, 37.50000000000000000, -1.500000000000000000 ) ) ;
#50 = ORIENTED_EDGE ( 'NONE', *, *, #79, .F. ) ;
#51 = LINE ( 'NONE', #41, #167 ) ;
#52 = ADVANCED_FACE ( 'NONE', ( #202 ), #175, .F. ) ;
#53 = DIRECTION ( 'NONE',  ( -0.0000000000000000000, -0.0000000000000000000, -1.000000000000000000 ) ) ;
#54 = PERSON ( 'UNSPECIFIED', 'UNSPECIFIED', 'UNSPECIFIED', ('UNSPECIFIED'), ('UNSPECIFIED'), ('UNSPECIFIED') ) ;
#55 = EDGE_LOOP ( 'NONE', ( #7, #113, #136, #234 ) ) ;
#56 = PLANE ( 'NONE',  #182 ) ;
#57 = EDGE_CURVE ( 'NONE', #16, #232, #86, .T. ) ;
#58 = PERSON_AND_ORGANIZATION ( #54, #13 ) ;
#59 = EDGE_LOOP ( 'NONE', ( #35, #67, #42, #138 ) ) ;
#60 = EDGE_CURVE ( 'NONE', #159, #16, #98, .T. ) ;
#61 = LOCAL_TIME ( 13, 4, 30.00000000000000000, #117 ) ;
#62 = APPROVAL_STATUS ( 'not_yet_approved' ) ;
#63 = CC_DESIGN_PERSON_AND_ORGANIZATION_ASSIGNMENT ( #5, #216, ( #48 ) ) ;
#64 = DIRECTION ( 'NONE',  ( 1.000000000000000000, 0.0000000000000000000, 0.0000000000000000000 ) ) ;
#65 = ORIENTED_EDGE ( 'NONE', *, *, #73, .T. ) ;
#66 = CARTESIAN_POINT ( 'NONE',  ( 37.50000000000000000, 37.50000000000000000, -1.500000000000000000 ) ) ;
#67 = ORIENTED_EDGE ( 'NONE', *, *, #60, .F. ) ;
#68 = FACE_OUTER_BOUND ( 'NONE', #115, .T. ) ;
#69 = CALENDAR_DATE ( 2017, 10, 4 ) ;
#70 = ORIENTED_EDGE ( 'NONE', *, *, #191, .T. ) ;
#71 = PRODUCT_DEFINITION_SHAPE ( 'NONE', 'NONE',  #166 ) ;
#72 = VERTEX_POINT ( 'NONE', #84 ) ;
#73 = EDGE_CURVE ( 'NONE', #75, #128, #126, .T. ) ;
#74 = PERSON_AND_ORGANIZATION_ROLE ( 'design_supplier' ) ;
#75 = VERTEX_POINT ( 'NONE', #122 ) ;
#76 = DIRECTION ( 'NONE',  ( 0.0000000000000000000, 1.000000000000000000, 0.0000000000000000000 ) ) ;
#77 = DATE_AND_TIME ( #127, #170 ) ;
#78 = DIRECTION ( 'NONE',  ( -1.000000000000000000, 0.0000000000000000000, -0.0000000000000000000 ) ) ;
#79 = EDGE_CURVE ( 'NONE', #128, #6, #51, .T. ) ;
#80 = AXIS2_PLACEMENT_3D ( 'NONE', #125, #124, #141 ) ;
#81 = DIRECTION ( 'NONE',  ( -1.000000000000000000, -0.0000000000000000000, -0.0000000000000000000 ) ) ;
#82 = CC_DESIGN_DATE_AND_TIME_ASSIGNMENT ( #46, #105, ( #48 ) ) ;
#83 = PERSON_AND_ORGANIZATION ( #54, #13 ) ;
#84 = CARTESIAN_POINT ( 'NONE',  ( 37.50000000000000000, -37.50000000000000000, -1.500000000000000000 ) ) ;
#85 = CARTESIAN_POINT ( 'NONE',  ( -37.50000000000000000, 37.50000000000000000, 1.500000000000000000 ) ) ;
#86 = LINE ( 'NONE', #172, #38 ) ;
#87 = APPROVAL ( #188, 'UNSPECIFIED' ) ;
#88 = CARTESIAN_POINT ( 'NONE',  ( -37.50000000000000000, -37.50000000000000000, 1.500000000000000000 ) ) ;
#89 = ORIENTED_EDGE ( 'NONE', *, *, #195, .T. ) ;
#90 = MANIFOLD_SOLID_BREP ( 'Extrude1', #121 ) ;
#91 = AXIS2_PLACEMENT_3D ( 'NONE', #133, #199, #140 ) ;
#92 = APPLICATION_PROTOCOL_DEFINITION ( 'international standard', 'config_control_design', 1994, #25 ) ;
#93 = DIRECTION ( 'NONE',  ( 0.0000000000000000000, 0.0000000000000000000, -1.000000000000000000 ) ) ;
#94 = PRODUCT ( 'Web Model 48415_48415', 'Web Model 48415_48415', '', ( #116 ) ) ;
#95 = LINE ( 'NONE', #142, #168 ) ;
#96 = SECURITY_CLASSIFICATION_LEVEL ( 'unclassified' ) ;
#97 = DIRECTION ( 'NONE',  ( 0.0000000000000000000, -0.0000000000000000000, -1.000000000000000000 ) ) ;
#98 = LINE ( 'NONE', #156, #192 ) ;
#99 = LOCAL_TIME ( 13, 4, 30.00000000000000000, #145 ) ;
#100 =( GEOMETRIC_REPRESENTATION_CONTEXT ( 3 ) GLOBAL_UNCERTAINTY_ASSIGNED_CONTEXT ( ( #222 ) ) GLOBAL_UNIT_ASSIGNED_CONTEXT ( ( #132, #15, #148 ) ) REPRESENTATION_CONTEXT ( 'NONE', 'WORKASPACE' ) );
#101 = VECTOR ( 'NONE', #178, 1000.000000000000000 ) ;
#102 = CARTESIAN_POINT ( 'NONE',  ( -37.50000000000000000, -37.50000000000000000, -1.500000000000000000 ) ) ;
#103 = CALENDAR_DATE ( 2017, 10, 4 ) ;
#104 = CC_DESIGN_APPROVAL ( #87, ( #48 ) ) ;
#105 = DATE_TIME_ROLE ( 'classification_date' ) ;
#106 = ORIENTED_EDGE ( 'NONE', *, *, #60, .T. ) ;
#107 = DIRECTION ( 'NONE',  ( 0.0000000000000000000, 0.0000000000000000000, 1.000000000000000000 ) ) ;
#108 = CARTESIAN_POINT ( 'NONE',  ( -37.50000000000000000, 37.50000000000000000, 1.500000000000000000 ) ) ;
#109 = LINE ( 'NONE', #43, #37 ) ;
#110 = PERSON_AND_ORGANIZATION ( #54, #13 ) ;
#111 = VECTOR ( 'NONE', #186, 1000.000000000000000 ) ;
#112 = DIRECTION ( 'NONE',  ( -1.000000000000000000, -0.0000000000000000000, -0.0000000000000000000 ) ) ;
#113 = ORIENTED_EDGE ( 'NONE', *, *, #195, .F. ) ;
#114 = CARTESIAN_POINT ( 'NONE',  ( 0.0000000000000000000, 0.0000000000000000000, 0.0000000000000000000 ) ) ;
#115 = EDGE_LOOP ( 'NONE', ( #151, #158, #65, #137 ) ) ;
#116 = MECHANICAL_CONTEXT ( 'NONE', #190, 'mechanical' ) ;
#117 = COORDINATED_UNIVERSAL_TIME_OFFSET ( 5, 0, .BEHIND. ) ;
#118 = VECTOR ( 'NONE', #221, 1000.000000000000000 ) ;
#119 = CC_DESIGN_SECURITY_CLASSIFICATION ( #48, ( #225 ) ) ;
#120 = LOCAL_TIME ( 13, 4, 30.00000000000000000, #165 ) ;
#121 = CLOSED_SHELL ( 'NONE', ( #52, #208, #20, #237, #123, #217 ) ) ;
#122 = CARTESIAN_POINT ( 'NONE',  ( 37.50000000000000000, -37.50000000000000000, 1.500000000000000000 ) ) ;
#123 = ADVANCED_FACE ( 'NONE', ( #68 ), #56, .F. ) ;
#124 = DIRECTION ( 'NONE',  ( 0.0000000000000000000, 1.000000000000000000, 0.0000000000000000000 ) ) ;
#125 = CARTESIAN_POINT ( 'NONE',  ( -37.50000000000000000, -37.50000000000000000, 1.500000000000000000 ) ) ;
#126 = LINE ( 'NONE', #39, #118 ) ;
#127 = CALENDAR_DATE ( 2017, 10, 4 ) ;
#128 = VERTEX_POINT ( 'NONE', #194 ) ;
#129 = CARTESIAN_POINT ( 'NONE',  ( 37.50000000000000000, -37.50000000000000000, 1.500000000000000000 ) ) ;
#130 = PRODUCT_RELATED_PRODUCT_CATEGORY ( 'detail', '', ( #94 ) ) ;
#131 = LINE ( 'NONE', #19, #21 ) ;
#132 =( LENGTH_UNIT ( ) NAMED_UNIT ( * ) SI_UNIT ( .MILLI., .METRE. ) );
#133 = CARTESIAN_POINT ( 'NONE',  ( -37.50000000000000000, -37.50000000000000000, 1.500000000000000000 ) ) ;
#134 = PERSON_AND_ORGANIZATION ( #54, #13 ) ;
#135 = PERSON_AND_ORGANIZATION_ROLE ( 'design_owner' ) ;
#136 = ORIENTED_EDGE ( 'NONE', *, *, #33, .F. ) ;
#137 = ORIENTED_EDGE ( 'NONE', *, *, #79, .T. ) ;
#138 = ORIENTED_EDGE ( 'NONE', *, *, #27, .F. ) ;
#139 = APPROVAL_ROLE ( '' ) ;
#140 = DIRECTION ( 'NONE',  ( 0.0000000000000000000, 0.0000000000000000000, -1.000000000000000000 ) ) ;
#141 = DIRECTION ( 'NONE',  ( 0.0000000000000000000, -0.0000000000000000000, 1.000000000000000000 ) ) ;
#142 = CARTESIAN_POINT ( 'NONE',  ( 37.50000000000000000, -37.50000000000000000, 1.500000000000000000 ) ) ;
#143 = PERSON_AND_ORGANIZATION_ROLE ( 'creator' ) ;
#144 = AXIS2_PLACEMENT_3D ( 'NONE', #114, #107, #227 ) ;
#145 = COORDINATED_UNIVERSAL_TIME_OFFSET ( 5, 0, .BEHIND. ) ;
#146 = AXIS2_PLACEMENT_3D ( 'NONE', #129, #160, #30 ) ;
#147 = LINE ( 'NONE', #88, #101 ) ;
#148 =( NAMED_UNIT ( * ) SI_UNIT ( $, .STERADIAN. ) SOLID_ANGLE_UNIT ( ) );
#149 = PLANE ( 'NONE',  #31 ) ;
#150 = LOCAL_TIME ( 13, 4, 30.00000000000000000, #193 ) ;
#151 = ORIENTED_EDGE ( 'NONE', *, *, #229, .T. ) ;
#152 = CC_DESIGN_PERSON_AND_ORGANIZATION_ASSIGNMENT ( #134, #135, ( #94 ) ) ;
#153 = CARTESIAN_POINT ( 'NONE',  ( -37.50000000000000000, 37.50000000000000000, -1.500000000000000000 ) ) ;
#154 = APPROVAL_DATE_TIME ( #203, #235 ) ;
#155 = DIRECTION ( 'NONE',  ( -0.0000000000000000000, -0.0000000000000000000, -1.000000000000000000 ) ) ;
#156 = CARTESIAN_POINT ( 'NONE',  ( -37.50000000000000000, 37.50000000000000000, -1.500000000000000000 ) ) ;
#157 = APPLICATION_PROTOCOL_DEFINITION ( 'international standard', 'config_control_design', 1994, #190 ) ;
#158 = ORIENTED_EDGE ( 'NONE', *, *, #33, .T. ) ;
#159 = VERTEX_POINT ( 'NONE', #66 ) ;
#160 = DIRECTION ( 'NONE',  ( -1.000000000000000000, 0.0000000000000000000, 0.0000000000000000000 ) ) ;
#161 = APPROVAL_PERSON_ORGANIZATION ( #206, #235, #171 ) ;
#162 = ORIENTED_EDGE ( 'NONE', *, *, #224, .T. ) ;
#163 = VERTEX_POINT ( 'NONE', #226 ) ;
#164 = ADVANCED_BREP_SHAPE_REPRESENTATION ( 'Web Model 48415_48415', ( #90, #144 ), #100 ) ;
#165 = COORDINATED_UNIVERSAL_TIME_OFFSET ( 5, 0, .BEHIND. ) ;
#166 = PRODUCT_DEFINITION ( 'UNKNOWN', '', #225, #4 ) ;
#167 = VECTOR ( 'NONE', #112, 1000.000000000000000 ) ;
#168 = VECTOR ( 'NONE', #207, 1000.000000000000000 ) ;
#169 = VECTOR ( 'NONE', #64, 1000.000000000000000 ) ;
#170 = LOCAL_TIME ( 13, 4, 30.00000000000000000, #220 ) ;
#171 = APPROVAL_ROLE ( '' ) ;
#172 = CARTESIAN_POINT ( 'NONE',  ( -37.50000000000000000, -37.50000000000000000, -1.500000000000000000 ) ) ;
#173 = EDGE_CURVE ( 'NONE', #163, #232, #109, .T. ) ;
#174 = DATE_TIME_ROLE ( 'creation_date' ) ;
#175 = PLANE ( 'NONE',  #91 ) ;
#176 = CARTESIAN_POINT ( 'NONE',  ( -37.50000000000000000, 37.50000000000000000, 1.500000000000000000 ) ) ;
#177 = APPROVAL ( #62, 'UNSPECIFIED' ) ;
#178 = DIRECTION ( 'NONE',  ( -0.0000000000000000000, -1.000000000000000000, -0.0000000000000000000 ) ) ;
#179 = EDGE_CURVE ( 'NONE', #128, #159, #11, .T. ) ;
#180 = EDGE_LOOP ( 'NONE', ( #212, #201, #198, #70 ) ) ;
#181 = DIRECTION ( 'NONE',  ( -0.0000000000000000000, -1.000000000000000000, -0.0000000000000000000 ) ) ;
#182 = AXIS2_PLACEMENT_3D ( 'NONE', #85, #44, #78 ) ;
#183 = APPROVAL_DATE_TIME ( #230, #87 ) ;
#184 = FACE_OUTER_BOUND ( 'NONE', #55, .T. ) ;
#185 = CC_DESIGN_APPROVAL ( #177, ( #166 ) ) ;
#186 = DIRECTION ( 'NONE',  ( -0.0000000000000000000, -0.0000000000000000000, -1.000000000000000000 ) ) ;
#187 = APPROVAL_PERSON_ORGANIZATION ( #236, #87, #139 ) ;
#188 = APPROVAL_STATUS ( 'not_yet_approved' ) ;
#189 = ORIENTED_EDGE ( 'NONE', *, *, #73, .F. ) ;
#190 = APPLICATION_CONTEXT ( 'configuration controlled 3d designs of mechanical parts and assemblies' ) ;
#191 = EDGE_CURVE ( 'NONE', #6, #16, #218, .T. ) ;
#192 = VECTOR ( 'NONE', #81, 1000.000000000000000 ) ;
#193 = COORDINATED_UNIVERSAL_TIME_OFFSET ( 5, 0, .BEHIND. ) ;
#194 = CARTESIAN_POINT ( 'NONE',  ( 37.50000000000000000, 37.50000000000000000, 1.500000000000000000 ) ) ;
#195 = EDGE_CURVE ( 'NONE', #75, #72, #95, .T. ) ;
#196 = FACE_OUTER_BOUND ( 'NONE', #14, .T. ) ;
#197 = CARTESIAN_POINT ( 'NONE',  ( -37.50000000000000000, -37.50000000000000000, 1.500000000000000000 ) ) ;
#198 = ORIENTED_EDGE ( 'NONE', *, *, #229, .F. ) ;
#199 = DIRECTION ( 'NONE',  ( 1.000000000000000000, 0.0000000000000000000, 0.0000000000000000000 ) ) ;
#200 = FACE_OUTER_BOUND ( 'NONE', #215, .T. ) ;
#201 = ORIENTED_EDGE ( 'NONE', *, *, #173, .F. ) ;
#202 = FACE_OUTER_BOUND ( 'NONE', #180, .T. ) ;
#203 = DATE_AND_TIME ( #10, #61 ) ;
#204 = CC_DESIGN_PERSON_AND_ORGANIZATION_ASSIGNMENT ( #213, #211, ( #166 ) ) ;
#205 = ORIENTED_EDGE ( 'NONE', *, *, #191, .F. ) ;
#206 = PERSON_AND_ORGANIZATION ( #54, #13 ) ;
#207 = DIRECTION ( 'NONE',  ( -0.0000000000000000000, -0.0000000000000000000, -1.000000000000000000 ) ) ;
#208 = ADVANCED_FACE ( 'NONE', ( #184 ), #45, .F. ) ;
#209 = PLANE ( 'NONE',  #24 ) ;
#210 = VECTOR ( 'NONE', #155, 1000.000000000000000 ) ;
#211 = PERSON_AND_ORGANIZATION_ROLE ( 'creator' ) ;
#212 = ORIENTED_EDGE ( 'NONE', *, *, #57, .T. ) ;
#213 = PERSON_AND_ORGANIZATION ( #54, #13 ) ;
#214 = CC_DESIGN_DATE_AND_TIME_ASSIGNMENT ( #18, #174, ( #166 ) ) ;
#215 = EDGE_LOOP ( 'NONE', ( #162, #2, #189, #89 ) ) ;
#216 = PERSON_AND_ORGANIZATION_ROLE ( 'classification_officer' ) ;
#217 = ADVANCED_FACE ( 'NONE', ( #1 ), #209, .T. ) ;
#218 = LINE ( 'NONE', #108, #210 ) ;
#219 = APPROVAL_ROLE ( '' ) ;
#220 = COORDINATED_UNIVERSAL_TIME_OFFSET ( 5, 0, .BEHIND. ) ;
#221 = DIRECTION ( 'NONE',  ( 0.0000000000000000000, 1.000000000000000000, 0.0000000000000000000 ) ) ;
#222 = UNCERTAINTY_MEASURE_WITH_UNIT (LENGTH_MEASURE( 1.000000000000000100E-005 ), #132, 'distance_accuracy_value', 'NONE');
#223 = VECTOR ( 'NONE', #47, 1000.000000000000000 ) ;
#224 = EDGE_CURVE ( 'NONE', #72, #159, #131, .T. ) ;
#225 = PRODUCT_DEFINITION_FORMATION_WITH_SPECIFIED_SOURCE ( 'ANY', '', #94, .NOT_KNOWN. ) ;
#226 = CARTESIAN_POINT ( 'NONE',  ( -37.50000000000000000, -37.50000000000000000, 1.500000000000000000 ) ) ;
#227 = DIRECTION ( 'NONE',  ( 1.000000000000000000, 0.0000000000000000000, 0.0000000000000000000 ) ) ;
#228 = SHAPE_DEFINITION_REPRESENTATION ( #71, #164 ) ;
#229 = EDGE_CURVE ( 'NONE', #6, #163, #147, .T. ) ;
#230 = DATE_AND_TIME ( #40, #99 ) ;
#231 = CARTESIAN_POINT ( 'NONE',  ( 37.50000000000000000, 37.50000000000000000, 1.500000000000000000 ) ) ;
#232 = VERTEX_POINT ( 'NONE', #32 ) ;
#233 = CARTESIAN_POINT ( 'NONE',  ( -37.50000000000000000, 37.50000000000000000, 1.500000000000000000 ) ) ;
#234 = ORIENTED_EDGE ( 'NONE', *, *, #173, .T. ) ;
#235 = APPROVAL ( #17, 'UNSPECIFIED' ) ;
#236 = PERSON_AND_ORGANIZATION ( #54, #13 ) ;
#237 = ADVANCED_FACE ( 'NONE', ( #196 ), #149, .F. ) ;
ENDSEC;
END-ISO-10303-21;
