ISO-10303-21;
HEADER;
FILE_DESCRIPTION (( 'STEP AP203' ),
    '1' );
FILE_NAME ('TTN098080-E0W.STEP',
    '2020-09-28T18:46:37',
    ( '' ),
    ( '' ),
    'SwSTEP 2.0',
    'SolidWorks 2018',
    '' );
FILE_SCHEMA (( 'CONFIG_CONTROL_DESIGN' ));
ENDSEC;

DATA;
#1 = CIRCLE ( 'NONE', #167, 6.350000000000005862 ) ;
#2 = VECTOR ( 'NONE', #126, 1000.000000000000000 ) ;
#3 = ORIENTED_EDGE ( 'NONE', *, *, #77, .F. ) ;
#4 = CARTESIAN_POINT ( 'NONE',  ( 0.0000000000000000000, 1.285783680600241194E-15, -1.164999999999986491 ) ) ;
#5 = AXIS2_PLACEMENT_3D ( 'NONE', #282, #281, #142 ) ;
#6 = DIRECTION ( 'NONE',  ( 0.0000000000000000000, 1.000000000000000000, -2.080257826882753813E-15 ) ) ;
#7 = CIRCLE ( 'NONE', #220, 6.350000000000010303 ) ;
#8 = DIRECTION ( 'NONE',  ( 0.0000000000000000000, 1.000000000000000000, 3.061515884555943639E-16 ) ) ;
#9 = DIRECTION ( 'NONE',  ( 1.000000000000000000, 0.0000000000000000000, -0.0000000000000000000 ) ) ;
#10 = CIRCLE ( 'NONE', #182, 6.350000000000005862 ) ;
#11 = FACE_OUTER_BOUND ( 'NONE', #255, .T. ) ;
#12 = DIRECTION ( 'NONE',  ( -1.224646799147352961E-16, 1.000000000000000000, 0.0000000000000000000 ) ) ;
#13 = EDGE_CURVE ( 'NONE', #287, #121, #57, .T. ) ;
#14 = CIRCLE ( 'NONE', #152, 6.150000000000008349 ) ;
#15 = DIRECTION ( 'NONE',  ( 0.0000000000000000000, 1.000000000000000000, -2.097887130500404824E-15 ) ) ;
#16 = DIRECTION ( 'NONE',  ( -0.0000000000000000000, -2.092109713059028688E-15, -1.000000000000000000 ) ) ;
#17 = LINE ( 'NONE', #233, #238 ) ;
#18 = ORIENTED_EDGE ( 'NONE', *, *, #210, .T. ) ;
#19 = APPROVAL_DATE_TIME ( #247, #155 ) ;
#20 = AXIS2_PLACEMENT_3D ( 'NONE', #123, #53, #8 ) ;
#21 = EDGE_LOOP ( 'NONE', ( #50, #39, #176 ) ) ;
#22 = ORIENTED_EDGE ( 'NONE', *, *, #148, .T. ) ;
#23 = PRODUCT_RELATED_PRODUCT_CATEGORY ( 'detail', '', ( #229 ) ) ;
#24 = AXIS2_PLACEMENT_3D ( 'NONE', #46, #118, #278 ) ;
#25 = DIRECTION ( 'NONE',  ( 0.0000000000000000000, 1.000000000000000000, 3.073328992872290944E-16 ) ) ;
#26 = EDGE_LOOP ( 'NONE', ( #277, #139, #107, #222 ) ) ;
#27 = DIRECTION ( 'NONE',  ( 0.0000000000000000000, 1.000000000000000000, -2.083034095168997179E-15 ) ) ;
#28 = PERSON_AND_ORGANIZATION_ROLE ( 'creator' ) ;
#29 = CARTESIAN_POINT ( 'NONE',  ( 7.776507174585701038E-16, -6.350000000000001421, 0.4825737791518692199 ) ) ;
#30 = APPROVAL_STATUS ( 'not_yet_approved' ) ;
#31 = DIRECTION ( 'NONE',  ( 1.000000000000000000, 1.224646799147353207E-16, 3.749275628560214164E-32 ) ) ;
#32 = CARTESIAN_POINT ( 'NONE',  ( 0.0000000000000000000, 5.151110729556993923E-15, 0.6825737791518587949 ) ) ;
#33 = PERSON_AND_ORGANIZATION ( #208, #230 ) ;
#34 = SPHERICAL_SURFACE ( 'NONE', #234, 28.05299999999994398 ) ;
#35 = ORIENTED_EDGE ( 'NONE', *, *, #13, .F. ) ;
#36 = APPROVAL_PERSON_ORGANIZATION ( #279, #73, #52 ) ;
#37 = DESIGN_CONTEXT ( 'detailed design', #296, 'design' ) ;
#38 = AXIS2_PLACEMENT_3D ( 'NONE', #102, #170, #15 ) ;
#39 = ORIENTED_EDGE ( 'NONE', *, *, #77, .T. ) ;
#40 = APPROVAL_PERSON_ORGANIZATION ( #283, #110, #236 ) ;
#41 = AXIS2_PLACEMENT_3D ( 'NONE', #213, #83, #108 ) ;
#42 = CIRCLE ( 'NONE', #38, 6.150000000000005684 ) ;
#43 = ORIENTED_EDGE ( 'NONE', *, *, #274, .F. ) ;
#44 = APPLICATION_PROTOCOL_DEFINITION ( 'international standard', 'config_control_design', 1994, #296 ) ;
#45 = CLOSED_SHELL ( 'NONE', ( #96, #177, #135, #271, #71, #93, #251, #179, #253 ) ) ;
#46 = CARTESIAN_POINT ( 'NONE',  ( 0.0000000000000000000, 1.285783680600241194E-15, -1.164999999999986491 ) ) ;
#47 = CALENDAR_DATE ( 2020, 28, 9 ) ;
#48 = CALENDAR_DATE ( 2020, 28, 9 ) ;
#49 = CARTESIAN_POINT ( 'NONE',  ( 0.0000000000000000000, 5.437252210971354553E-16, -1.364999999999999991 ) ) ;
#50 = ORIENTED_EDGE ( 'NONE', *, *, #148, .F. ) ;
#51 = AXIS2_PLACEMENT_3D ( 'NONE', #269, #65, #218 ) ;
#52 = APPROVAL_ROLE ( '' ) ;
#53 = DIRECTION ( 'NONE',  ( -0.0000000000000000000, 3.061515884555943639E-16, -1.000000000000000000 ) ) ;
#54 = PERSON_AND_ORGANIZATION ( #208, #230 ) ;
#55 = APPROVAL_STATUS ( 'not_yet_approved' ) ;
#56 = APPROVAL_STATUS ( 'not_yet_approved' ) ;
#57 = CIRCLE ( 'NONE', #173, 6.350000000000010303 ) ;
#58 = DIRECTION ( 'NONE',  ( -0.0000000000000000000, -2.092109713059028688E-15, -1.000000000000000000 ) ) ;
#59 = ADVANCED_BREP_SHAPE_REPRESENTATION ( 'TTN098080-E0W', ( #151, #270 ), #117 ) ;
#60 = APPLICATION_PROTOCOL_DEFINITION ( 'international standard', 'config_control_design', 1994, #196 ) ;
#61 = CC_DESIGN_DATE_AND_TIME_ASSIGNMENT ( #109, #232, ( #276 ) ) ;
#62 = CIRCLE ( 'NONE', #191, 28.05299999999994398 ) ;
#63 =( LENGTH_UNIT ( ) NAMED_UNIT ( * ) SI_UNIT ( .MILLI., .METRE. ) );
#64 = EDGE_CURVE ( 'NONE', #147, #121, #134, .T. ) ;
#65 = DIRECTION ( 'NONE',  ( -0.0000000000000000000, -2.092109713059028688E-15, -1.000000000000000000 ) ) ;
#66 = VERTEX_POINT ( 'NONE', #260 ) ;
#67 = ORIENTED_EDGE ( 'NONE', *, *, #141, .F. ) ;
#68 = CONICAL_SURFACE ( 'NONE', #299, 6.150000000000005684, 0.7853981633974423948 ) ;
#69 = VECTOR ( 'NONE', #120, 1000.000000000000000 ) ;
#70 = ORIENTED_EDGE ( 'NONE', *, *, #137, .T. ) ;
#71 = ADVANCED_FACE ( 'NONE', ( #11 ), #217, .T. ) ;
#72 = ORIENTED_EDGE ( 'NONE', *, *, #13, .T. ) ;
#73 = APPROVAL ( #30, 'UNSPECIFIED' ) ;
#74 = FACE_OUTER_BOUND ( 'NONE', #206, .T. ) ;
#75 = CARTESIAN_POINT ( 'NONE',  ( 0.0000000000000000000, 3.143319588991272162E-15, -26.68800000000004502 ) ) ;
#76 = CC_DESIGN_PERSON_AND_ORGANIZATION_ASSIGNMENT ( #248, #101, ( #112 ) ) ;
#77 = EDGE_CURVE ( 'NONE', #87, #156, #62, .T. ) ;
#78 = COORDINATED_UNIVERSAL_TIME_OFFSET ( 5, 0, .BEHIND. ) ;
#79 = ORIENTED_EDGE ( 'NONE', *, *, #64, .F. ) ;
#80 = CARTESIAN_POINT ( 'NONE',  ( 0.0000000000000000000, -3.727400089129467306E-15, 1.364999999999897629 ) ) ;
#81 = PLANE ( 'NONE',  #20 ) ;
#82 = ORIENTED_EDGE ( 'NONE', *, *, #201, .T. ) ;
#83 = DIRECTION ( 'NONE',  ( -0.0000000000000000000, 3.061515884555943639E-16, -1.000000000000000000 ) ) ;
#84 = DIRECTION ( 'NONE',  ( 0.0000000000000000000, 0.0000000000000000000, 1.000000000000000000 ) ) ;
#85 = CARTESIAN_POINT ( 'NONE',  ( 7.654042494670964509E-16, -6.150000000000000355, 0.6825737791518716735 ) ) ;
#86 = FACE_OUTER_BOUND ( 'NONE', #249, .T. ) ;
#87 = VERTEX_POINT ( 'NONE', #80 ) ;
#88 = COORDINATED_UNIVERSAL_TIME_OFFSET ( 5, 0, .BEHIND. ) ;
#89 = CC_DESIGN_APPROVAL ( #73, ( #145 ) ) ;
#90 = LINE ( 'NONE', #286, #138 ) ;
#91 = ORIENTED_EDGE ( 'NONE', *, *, #261, .F. ) ;
#92 = CALENDAR_DATE ( 2020, 28, 9 ) ;
#93 = ADVANCED_FACE ( 'NONE', ( #153 ), #241, .T. ) ;
#94 = PERSON_AND_ORGANIZATION_ROLE ( 'design_owner' ) ;
#95 = CC_DESIGN_PERSON_AND_ORGANIZATION_ASSIGNMENT ( #54, #94, ( #229 ) ) ;
#96 = ADVANCED_FACE ( 'NONE', ( #119 ), #131, .T. ) ;
#97 = CIRCLE ( 'NONE', #5, 6.150000000000005684 ) ;
#98 = ORIENTED_EDGE ( 'NONE', *, *, #64, .T. ) ;
#99 = EDGE_CURVE ( 'NONE', #147, #66, #14, .T. ) ;
#100 = DIRECTION ( 'NONE',  ( 8.659560562354882322E-17, -0.7071067811865447972, -0.7071067811865502373 ) ) ;
#101 = PERSON_AND_ORGANIZATION_ROLE ( 'classification_officer' ) ;
#102 = CARTESIAN_POINT ( 'NONE',  ( 0.0000000000000000000, 5.151110729556993923E-15, 0.6825737791518587949 ) ) ;
#103 = COORDINATED_UNIVERSAL_TIME_OFFSET ( 5, 0, .BEHIND. ) ;
#104 = CARTESIAN_POINT ( 'NONE',  ( 0.0000000000000000000, 5.151110729556993923E-15, 0.6825737791518587949 ) ) ;
#105 = AXIS2_PLACEMENT_3D ( 'NONE', #4, #115, #207 ) ;
#106 = LOCAL_TIME ( 14, 46, 37.00000000000000000, #78 ) ;
#107 = ORIENTED_EDGE ( 'NONE', *, *, #265, .F. ) ;
#108 = DIRECTION ( 'NONE',  ( 0.0000000000000000000, 1.000000000000000000, 3.073328992872290944E-16 ) ) ;
#109 = DATE_AND_TIME ( #92, #157 ) ;
#110 = APPROVAL ( #55, 'UNSPECIFIED' ) ;
#111 = LOCAL_TIME ( 14, 46, 37.00000000000000000, #127 ) ;
#112 = SECURITY_CLASSIFICATION ( '', '', #263 ) ;
#113 = CIRCLE ( 'NONE', #51, 6.150000000000008349 ) ;
#114 = EDGE_LOOP ( 'NONE', ( #3, #22, #91 ) ) ;
#115 = DIRECTION ( 'NONE',  ( 0.0000000000000000000, 2.092109713059028688E-15, 1.000000000000000000 ) ) ;
#116 = EDGE_LOOP ( 'NONE', ( #293, #239, #70, #43 ) ) ;
#117 =( GEOMETRIC_REPRESENTATION_CONTEXT ( 3 ) GLOBAL_UNCERTAINTY_ASSIGNED_CONTEXT ( ( #174 ) ) GLOBAL_UNIT_ASSIGNED_CONTEXT ( ( #63, #246, #168 ) ) REPRESENTATION_CONTEXT ( 'NONE', 'WORKASPACE' ) );
#118 = DIRECTION ( 'NONE',  ( 0.0000000000000000000, 2.092109713059028688E-15, 1.000000000000000000 ) ) ;
#119 = FACE_OUTER_BOUND ( 'NONE', #114, .T. ) ;
#120 = DIRECTION ( 'NONE',  ( 0.0000000000000000000, -0.7071067811865476838, 0.7071067811865474617 ) ) ;
#121 = VERTEX_POINT ( 'NONE', #228 ) ;
#122 = DIRECTION ( 'NONE',  ( -0.0000000000000000000, 3.061515884555943639E-16, -1.000000000000000000 ) ) ;
#123 = CARTESIAN_POINT ( 'NONE',  ( 0.0000000000000000000, 5.437252210971357511E-16, -1.365000000000000657 ) ) ;
#124 = DIRECTION ( 'NONE',  ( -0.0000000000000000000, -2.092109713059028688E-15, -1.000000000000000000 ) ) ;
#125 = AXIS2_PLACEMENT_3D ( 'NONE', #104, #58, #165 ) ;
#126 = DIRECTION ( 'NONE',  ( 0.0000000000000000000, 0.7071067811865419106, -0.7071067811865531239 ) ) ;
#127 = COORDINATED_UNIVERSAL_TIME_OFFSET ( 5, 0, .BEHIND. ) ;
#128 = ORIENTED_EDGE ( 'NONE', *, *, #265, .T. ) ;
#129 = CC_DESIGN_DATE_AND_TIME_ASSIGNMENT ( #216, #187, ( #112 ) ) ;
#130 = CARTESIAN_POINT ( 'NONE',  ( 0.0000000000000000000, 4.732688786945182111E-15, 0.4825737791518558972 ) ) ;
#131 = SPHERICAL_SURFACE ( 'NONE', #292, 28.05299999999994398 ) ;
#132 = CC_DESIGN_PERSON_AND_ORGANIZATION_ASSIGNMENT ( #33, #285, ( #145 ) ) ;
#133 = CONICAL_SURFACE ( 'NONE', #24, 6.350000000000010303, 0.7853981633974504994 ) ;
#134 = LINE ( 'NONE', #188, #69 ) ;
#135 = ADVANCED_FACE ( 'NONE', ( #74 ), #133, .T. ) ;
#136 = ORIENTED_EDGE ( 'NONE', *, *, #242, .T. ) ;
#137 = EDGE_CURVE ( 'NONE', #156, #202, #298, .T. ) ;
#138 = VECTOR ( 'NONE', #264, 1000.000000000000000 ) ;
#139 = ORIENTED_EDGE ( 'NONE', *, *, #223, .T. ) ;
#140 = DIRECTION ( 'NONE',  ( 0.0000000000000000000, 1.000000000000000000, -2.083034095168997179E-15 ) ) ;
#141 = EDGE_CURVE ( 'NONE', #121, #287, #7, .T. ) ;
#142 = DIRECTION ( 'NONE',  ( 0.0000000000000000000, 1.000000000000000000, -2.097887130500404824E-15 ) ) ;
#143 = CARTESIAN_POINT ( 'NONE',  ( 0.0000000000000000000, 3.143319588991272162E-15, -26.68800000000004502 ) ) ;
#144 = CARTESIAN_POINT ( 'NONE',  ( 0.0000000000000000000, 1.285783680600241194E-15, -1.164999999999986491 ) ) ;
#145 = PRODUCT_DEFINITION_FORMATION_WITH_SPECIFIED_SOURCE ( 'ANY', '', #229, .NOT_KNOWN. ) ;
#146 = CARTESIAN_POINT ( 'NONE',  ( 0.0000000000000000000, 0.0000000000000000000, 0.0000000000000000000 ) ) ;
#147 = VERTEX_POINT ( 'NONE', #284 ) ;
#148 = EDGE_CURVE ( 'NONE', #87, #297, #243, .T. ) ;
#149 = PERSON_AND_ORGANIZATION ( #208, #230 ) ;
#150 = APPROVAL_DATE_TIME ( #158, #73 ) ;
#151 = MANIFOLD_SOLID_BREP ( 'TTN098081-1-solid1', #45 ) ;
#152 = AXIS2_PLACEMENT_3D ( 'NONE', #197, #124, #6 ) ;
#153 = FACE_OUTER_BOUND ( 'NONE', #215, .T. ) ;
#154 = DATE_AND_TIME ( #235, #275 ) ;
#155 = APPROVAL ( #56, 'UNSPECIFIED' ) ;
#156 = VERTEX_POINT ( 'NONE', #214 ) ;
#157 = LOCAL_TIME ( 14, 46, 37.00000000000000000, #204 ) ;
#158 = DATE_AND_TIME ( #48, #178 ) ;
#159 = AXIS2_PLACEMENT_3D ( 'NONE', #49, #211, #25 ) ;
#160 = CARTESIAN_POINT ( 'NONE',  ( 0.0000000000000000000, 3.143319588991272162E-15, -26.68800000000004502 ) ) ;
#161 = DIRECTION ( 'NONE',  ( -0.0000000000000000000, -2.092109713059028688E-15, -1.000000000000000000 ) ) ;
#162 = LINE ( 'NONE', #240, #258 ) ;
#163 = ORIENTED_EDGE ( 'NONE', *, *, #210, .F. ) ;
#164 = DIRECTION ( 'NONE',  ( 8.659560562354952580E-17, 0.7071067811865505703, 0.7071067811865444641 ) ) ;
#165 = DIRECTION ( 'NONE',  ( 0.0000000000000000000, 1.000000000000000000, -2.097887130500404824E-15 ) ) ;
#166 = DIRECTION ( 'NONE',  ( 0.0000000000000000000, 1.000000000000000000, 2.473494422666824240E-16 ) ) ;
#167 = AXIS2_PLACEMENT_3D ( 'NONE', #171, #16, #288 ) ;
#168 =( NAMED_UNIT ( * ) SI_UNIT ( $, .STERADIAN. ) SOLID_ANGLE_UNIT ( ) );
#169 = PERSON_AND_ORGANIZATION ( #208, #230 ) ;
#170 = DIRECTION ( 'NONE',  ( -0.0000000000000000000, -2.092109713059028688E-15, -1.000000000000000000 ) ) ;
#171 = CARTESIAN_POINT ( 'NONE',  ( 0.0000000000000000000, 4.732688786945182111E-15, 0.4825737791518558972 ) ) ;
#172 = CALENDAR_DATE ( 2020, 28, 9 ) ;
#173 = AXIS2_PLACEMENT_3D ( 'NONE', #231, #161, #27 ) ;
#174 = UNCERTAINTY_MEASURE_WITH_UNIT (LENGTH_MEASURE( 1.000000000000000082E-05 ), #63, 'distance_accuracy_value', 'NONE');
#175 = ORIENTED_EDGE ( 'NONE', *, *, #141, .T. ) ;
#176 = ORIENTED_EDGE ( 'NONE', *, *, #245, .F. ) ;
#177 = ADVANCED_FACE ( 'NONE', ( #190 ), #68, .T. ) ;
#178 = LOCAL_TIME ( 14, 46, 37.00000000000000000, #88 ) ;
#179 = ADVANCED_FACE ( 'NONE', ( #290 ), #203, .T. ) ;
#180 = SHAPE_DEFINITION_REPRESENTATION ( #254, #59 ) ;
#181 = APPROVAL_PERSON_ORGANIZATION ( #300, #155, #237 ) ;
#182 = AXIS2_PLACEMENT_3D ( 'NONE', #130, #199, #289 ) ;
#183 = CYLINDRICAL_SURFACE ( 'NONE', #41, 6.350000000000010303 ) ;
#184 = ORIENTED_EDGE ( 'NONE', *, *, #295, .T. ) ;
#185 = DIRECTION ( 'NONE',  ( -1.000000000000000000, 0.0000000000000000000, 0.0000000000000000000 ) ) ;
#186 = ORIENTED_EDGE ( 'NONE', *, *, #274, .T. ) ;
#187 = DATE_TIME_ROLE ( 'classification_date' ) ;
#188 = CARTESIAN_POINT ( 'NONE',  ( 0.0000000000000000000, -6.350000000000009415, -1.164999999999973390 ) ) ;
#189 = DIRECTION ( 'NONE',  ( -0.0000000000000000000, -2.092109713059028688E-15, -1.000000000000000000 ) ) ;
#190 = FACE_OUTER_BOUND ( 'NONE', #26, .T. ) ;
#191 = AXIS2_PLACEMENT_3D ( 'NONE', #75, #185, #257 ) ;
#192 = PERSON_AND_ORGANIZATION_ROLE ( 'design_supplier' ) ;
#193 = CARTESIAN_POINT ( 'NONE',  ( 0.0000000000000000000, 6.150000000000010125, 0.6825737791518459163 ) ) ;
#194 = VERTEX_POINT ( 'NONE', #29 ) ;
#195 = DIRECTION ( 'NONE',  ( -0.0000000000000000000, -2.092109713059028688E-15, -1.000000000000000000 ) ) ;
#196 = APPLICATION_CONTEXT ( 'configuration controlled 3d designs of mechanical parts and assemblies' ) ;
#197 = CARTESIAN_POINT ( 'NONE',  ( 0.0000000000000000000, 8.673617379884345100E-16, -1.364999999999987113 ) ) ;
#198 = CC_DESIGN_PERSON_AND_ORGANIZATION_ASSIGNMENT ( #169, #192, ( #145 ) ) ;
#199 = DIRECTION ( 'NONE',  ( -0.0000000000000000000, -2.092109713059028688E-15, -1.000000000000000000 ) ) ;
#200 = ORIENTED_EDGE ( 'NONE', *, *, #242, .F. ) ;
#201 = EDGE_CURVE ( 'NONE', #66, #287, #301, .T. ) ;
#202 = VERTEX_POINT ( 'NONE', #266 ) ;
#203 = CONICAL_SURFACE ( 'NONE', #125, 6.150000000000005684, 0.7853981633974423948 ) ;
#204 = COORDINATED_UNIVERSAL_TIME_OFFSET ( 5, 0, .BEHIND. ) ;
#205 = DIRECTION ( 'NONE',  ( 1.000000000000000000, 0.0000000000000000000, -0.0000000000000000000 ) ) ;
#206 = EDGE_LOOP ( 'NONE', ( #244, #82, #72, #79 ) ) ;
#207 = DIRECTION ( 'NONE',  ( 0.0000000000000000000, -1.000000000000000000, 2.083034095168997179E-15 ) ) ;
#208 = PERSON ( 'UNSPECIFIED', 'UNSPECIFIED', 'UNSPECIFIED', ('UNSPECIFIED'), ('UNSPECIFIED'), ('UNSPECIFIED') ) ;
#209 = APPROVAL_DATE_TIME ( #154, #110 ) ;
#210 = EDGE_CURVE ( 'NONE', #194, #121, #90, .T. ) ;
#211 = DIRECTION ( 'NONE',  ( -0.0000000000000000000, 3.061515884555943639E-16, -1.000000000000000000 ) ) ;
#212 = CARTESIAN_POINT ( 'NONE',  ( 7.776507174585704982E-16, 6.350000000000011191, -1.164999999999999813 ) ) ;
#213 = CARTESIAN_POINT ( 'NONE',  ( 0.0000000000000000000, 5.437252210971354553E-16, -1.364999999999999991 ) ) ;
#214 = CARTESIAN_POINT ( 'NONE',  ( 0.0000000000000000000, 6.150000000000010125, 0.6825737791518459163 ) ) ;
#215 = EDGE_LOOP ( 'NONE', ( #224, #252, #98, #175 ) ) ;
#216 = DATE_AND_TIME ( #47, #106 ) ;
#217 = CYLINDRICAL_SURFACE ( 'NONE', #159, 6.350000000000010303 ) ;
#218 = DIRECTION ( 'NONE',  ( 0.0000000000000000000, 1.000000000000000000, -2.080257826882753813E-15 ) ) ;
#220 = AXIS2_PLACEMENT_3D ( 'NONE', #144, #189, #140 ) ;
#219 = MECHANICAL_CONTEXT ( 'NONE', #196, 'mechanical' ) ;
#221 = FACE_OUTER_BOUND ( 'NONE', #21, .T. ) ;
#222 = ORIENTED_EDGE ( 'NONE', *, *, #137, .F. ) ;
#223 = EDGE_CURVE ( 'NONE', #297, #194, #162, .T. ) ;
#224 = ORIENTED_EDGE ( 'NONE', *, *, #201, .F. ) ;
#225 = AXIS2_PLACEMENT_3D ( 'NONE', #262, #31, #12 ) ;
#226 = VECTOR ( 'NONE', #164, 1000.000000000000114 ) ;
#227 = FACE_OUTER_BOUND ( 'NONE', #272, .T. ) ;
#228 = CARTESIAN_POINT ( 'NONE',  ( 7.776507174585704982E-16, -6.350000000000009415, -1.164999999999973390 ) ) ;
#229 = PRODUCT ( 'TTN098080-E0W', 'TTN098080-E0W', '', ( #219 ) ) ;
#230 = ORGANIZATION ( 'UNSPECIFIED', 'UNSPECIFIED', '' ) ;
#231 = CARTESIAN_POINT ( 'NONE',  ( 0.0000000000000000000, 1.285783680600241194E-15, -1.164999999999986491 ) ) ;
#232 = DATE_TIME_ROLE ( 'creation_date' ) ;
#233 = CARTESIAN_POINT ( 'NONE',  ( 0.0000000000000000000, 6.350000000000011191, -1.364999999999997993 ) ) ;
#234 = AXIS2_PLACEMENT_3D ( 'NONE', #143, #9, #166 ) ;
#235 = CALENDAR_DATE ( 2020, 28, 9 ) ;
#236 = APPROVAL_ROLE ( '' ) ;
#237 = APPROVAL_ROLE ( '' ) ;
#238 = VECTOR ( 'NONE', #122, 1000.000000000000000 ) ;
#239 = ORIENTED_EDGE ( 'NONE', *, *, #245, .T. ) ;
#240 = CARTESIAN_POINT ( 'NONE',  ( 7.531577814756228966E-16, -6.150000000000000355, 0.6825737791518716735 ) ) ;
#241 = CONICAL_SURFACE ( 'NONE', #105, 6.350000000000010303, 0.7853981633974504994 ) ;
#242 = EDGE_CURVE ( 'NONE', #202, #287, #17, .T. ) ;
#243 = CIRCLE ( 'NONE', #225, 28.05299999999994398 ) ;
#244 = ORIENTED_EDGE ( 'NONE', *, *, #295, .F. ) ;
#245 = EDGE_CURVE ( 'NONE', #297, #156, #97, .T. ) ;
#246 =( NAMED_UNIT ( * ) PLANE_ANGLE_UNIT ( ) SI_UNIT ( $, .RADIAN. ) );
#247 = DATE_AND_TIME ( #172, #111 ) ;
#248 = PERSON_AND_ORGANIZATION ( #208, #230 ) ;
#249 = EDGE_LOOP ( 'NONE', ( #259, #184 ) ) ;
#250 = CC_DESIGN_APPROVAL ( #110, ( #276 ) ) ;
#251 = ADVANCED_FACE ( 'NONE', ( #86 ), #81, .T. ) ;
#252 = ORIENTED_EDGE ( 'NONE', *, *, #99, .F. ) ;
#253 = ADVANCED_FACE ( 'NONE', ( #221 ), #34, .T. ) ;
#254 = PRODUCT_DEFINITION_SHAPE ( 'NONE', 'NONE',  #276 ) ;
#255 = EDGE_LOOP ( 'NONE', ( #163, #186, #136, #67 ) ) ;
#256 = DIRECTION ( 'NONE',  ( 0.0000000000000000000, 1.000000000000000000, 2.473494422666824240E-16 ) ) ;
#257 = DIRECTION ( 'NONE',  ( 0.0000000000000000000, 0.0000000000000000000, 1.000000000000000000 ) ) ;
#258 = VECTOR ( 'NONE', #100, 1000.000000000000000 ) ;
#259 = ORIENTED_EDGE ( 'NONE', *, *, #99, .T. ) ;
#260 = CARTESIAN_POINT ( 'NONE',  ( 7.654042494670969439E-16, 6.150000000000009237, -1.364999999999999991 ) ) ;
#261 = EDGE_CURVE ( 'NONE', #156, #297, #42, .T. ) ;
#262 = CARTESIAN_POINT ( 'NONE',  ( 0.0000000000000000000, 3.143319588991272162E-15, -26.68800000000004502 ) ) ;
#263 = SECURITY_CLASSIFICATION_LEVEL ( 'unclassified' ) ;
#264 = DIRECTION ( 'NONE',  ( -0.0000000000000000000, 3.061515884555943639E-16, -1.000000000000000000 ) ) ;
#265 = EDGE_CURVE ( 'NONE', #202, #194, #1, .T. ) ;
#266 = CARTESIAN_POINT ( 'NONE',  ( 0.0000000000000000000, 6.350000000000010303, 0.4825737791518426301 ) ) ;
#267 = DIRECTION ( 'NONE',  ( 1.000000000000000000, 0.0000000000000000000, 0.0000000000000000000 ) ) ;
#268 = CARTESIAN_POINT ( 'NONE',  ( 0.0000000000000000000, 6.350000000000011191, -1.164999999999999813 ) ) ;
#269 = CARTESIAN_POINT ( 'NONE',  ( 0.0000000000000000000, 8.673617379884345100E-16, -1.364999999999987113 ) ) ;
#270 = AXIS2_PLACEMENT_3D ( 'NONE', #146, #84, #267 ) ;
#271 = ADVANCED_FACE ( 'NONE', ( #227 ), #183, .T. ) ;
#272 = EDGE_LOOP ( 'NONE', ( #128, #18, #35, #200 ) ) ;
#273 = CC_DESIGN_APPROVAL ( #155, ( #112 ) ) ;
#274 = EDGE_CURVE ( 'NONE', #194, #202, #10, .T. ) ;
#275 = LOCAL_TIME ( 14, 46, 37.00000000000000000, #103 ) ;
#276 = PRODUCT_DEFINITION ( 'UNKNOWN', '', #145, #37 ) ;
#277 = ORIENTED_EDGE ( 'NONE', *, *, #261, .T. ) ;
#278 = DIRECTION ( 'NONE',  ( 0.0000000000000000000, -1.000000000000000000, 2.083034095168997179E-15 ) ) ;
#279 = PERSON_AND_ORGANIZATION ( #208, #230 ) ;
#280 = DIRECTION ( 'NONE',  ( 0.0000000000000000000, 1.000000000000000000, -2.097887130500404824E-15 ) ) ;
#281 = DIRECTION ( 'NONE',  ( -0.0000000000000000000, -2.092109713059028688E-15, -1.000000000000000000 ) ) ;
#282 = CARTESIAN_POINT ( 'NONE',  ( 0.0000000000000000000, 5.151110729556993923E-15, 0.6825737791518587949 ) ) ;
#283 = PERSON_AND_ORGANIZATION ( #208, #230 ) ;
#284 = CARTESIAN_POINT ( 'NONE',  ( 0.0000000000000000000, -6.150000000000007461, -1.364999999999974234 ) ) ;
#285 = PERSON_AND_ORGANIZATION_ROLE ( 'creator' ) ;
#286 = CARTESIAN_POINT ( 'NONE',  ( 7.776507174585704982E-16, -6.350000000000009415, -1.365000000000001767 ) ) ;
#287 = VERTEX_POINT ( 'NONE', #268 ) ;
#288 = DIRECTION ( 'NONE',  ( 0.0000000000000000000, 1.000000000000000000, -2.091571120149199610E-15 ) ) ;
#289 = DIRECTION ( 'NONE',  ( 0.0000000000000000000, 1.000000000000000000, -2.091571120149199610E-15 ) ) ;
#290 = FACE_OUTER_BOUND ( 'NONE', #116, .T. ) ;
#291 = CC_DESIGN_SECURITY_CLASSIFICATION ( #112, ( #145 ) ) ;
#292 = AXIS2_PLACEMENT_3D ( 'NONE', #160, #205, #256 ) ;
#293 = ORIENTED_EDGE ( 'NONE', *, *, #223, .F. ) ;
#294 = CC_DESIGN_PERSON_AND_ORGANIZATION_ASSIGNMENT ( #149, #28, ( #276 ) ) ;
#295 = EDGE_CURVE ( 'NONE', #66, #147, #113, .T. ) ;
#296 = APPLICATION_CONTEXT ( 'configuration controlled 3d designs of mechanical parts and assemblies' ) ;
#297 = VERTEX_POINT ( 'NONE', #85 ) ;
#298 = LINE ( 'NONE', #193, #2 ) ;
#299 = AXIS2_PLACEMENT_3D ( 'NONE', #32, #195, #280 ) ;
#300 = PERSON_AND_ORGANIZATION ( #208, #230 ) ;
#301 = LINE ( 'NONE', #212, #226 ) ;
ENDSEC;
END-ISO-10303-21;
