ISO-10303-21;
HEADER;
FILE_DESCRIPTION (( 'STEP AP203' ),
    '1' );
FILE_NAME ('Web Model 20199_20199.step',
    '2022-03-01T14:45:24',
    ( '' ),
    ( '' ),
    'SwSTEP 2.0',
    'SolidWorks 2021',
    '' );
FILE_SCHEMA (( 'CONFIG_CONTROL_DESIGN' ));
ENDSEC;

DATA;
#1 = DIRECTION ( 'NONE',  ( 0.000000000000000000, 0.000000000000000000, 1.000000000000000000 ) ) ;
#2 = CARTESIAN_POINT ( 'NONE',  ( 2.500000000000000444, -2.500000000000000000, 0.1000000000000000056 ) ) ;
#3 = DIRECTION ( 'NONE',  ( -0.000000000000000000, 1.000000000000000000, -0.000000000000000000 ) ) ;
#4 = PERSON_AND_ORGANIZATION_ROLE ( 'classification_officer' ) ;
#5 = PERSON_AND_ORGANIZATION ( #211, #60 ) ;
#6 = DATE_AND_TIME ( #38, #177 ) ;
#7 = VECTOR ( 'NONE', #3, 1000.000000000000000 ) ;
#8 = APPROVAL_DATE_TIME ( #23, #189 ) ;
#9 = EDGE_CURVE ( 'NONE', #156, #28, #100, .T. ) ;
#10 = EDGE_LOOP ( 'NONE', ( #195, #197, #29, #158 ) ) ;
#11 = ORIENTED_EDGE ( 'NONE', *, *, #224, .F. ) ;
#12 = ORIENTED_EDGE ( 'NONE', *, *, #193, .F. ) ;
#13 = CARTESIAN_POINT ( 'NONE',  ( 2.500000000000000444, -2.500000000000000000, 0.000000000000000000 ) ) ;
#14 = FACE_OUTER_BOUND ( 'NONE', #45, .T. ) ;
#15 = CARTESIAN_POINT ( 'NONE',  ( 0.000000000000000000, 0.000000000000000000, 0.000000000000000000 ) ) ;
#16 = DIRECTION ( 'NONE',  ( -1.000000000000000000, -0.000000000000000000, -0.000000000000000000 ) ) ;
#17 = PLANE ( 'NONE',  #82 ) ;
#18 = EDGE_CURVE ( 'NONE', #117, #44, #230, .T. ) ;
#19 = CARTESIAN_POINT ( 'NONE',  ( 0.000000000000000000, 0.000000000000000000, 0.000000000000000000 ) ) ;
#20 = DIRECTION ( 'NONE',  ( -0.000000000000000000, -0.000000000000000000, -1.000000000000000000 ) ) ;
#21 = DIRECTION ( 'NONE',  ( 0.000000000000000000, 0.000000000000000000, 1.000000000000000000 ) ) ;
#22 = DIRECTION ( 'NONE',  ( -0.000000000000000000, -0.000000000000000000, -1.000000000000000000 ) ) ;
#23 = DATE_AND_TIME ( #173, #89 ) ;
#24 = EDGE_CURVE ( 'NONE', #120, #196, #32, .T. ) ;
#25 = VECTOR ( 'NONE', #20, 1000.000000000000000 ) ;
#26 = APPROVAL_DATE_TIME ( #159, #57 ) ;
#27 = CARTESIAN_POINT ( 'NONE',  ( -2.499999999999999112, -2.500000000000000000, 0.1000000000000000056 ) ) ;
#28 = VERTEX_POINT ( 'NONE', #207 ) ;
#29 = ORIENTED_EDGE ( 'NONE', *, *, #180, .F. ) ;
#30 = DIRECTION ( 'NONE',  ( -0.000000000000000000, 0.000000000000000000, 1.000000000000000000 ) ) ;
#31 = PLANE ( 'NONE',  #178 ) ;
#32 = LINE ( 'NONE', #50, #214 ) ;
#33 = FACE_OUTER_BOUND ( 'NONE', #137, .T. ) ;
#34 = DIRECTION ( 'NONE',  ( -0.000000000000000000, -0.000000000000000000, -1.000000000000000000 ) ) ;
#35 = PERSON_AND_ORGANIZATION ( #211, #60 ) ;
#36 = DATE_AND_TIME ( #225, #78 ) ;
#37 = VECTOR ( 'NONE', #236, 1000.000000000000000 ) ;
#38 = CALENDAR_DATE ( 2022, 1, 3 ) ;
#39 = VECTOR ( 'NONE', #34, 1000.000000000000000 ) ;
#40 = CC_DESIGN_SECURITY_CLASSIFICATION ( #150, ( #165 ) ) ;
#41 = APPROVAL ( #152, 'UNSPECIFIED' ) ;
#42 = ORIENTED_EDGE ( 'NONE', *, *, #216, .T. ) ;
#43 =( GEOMETRIC_REPRESENTATION_CONTEXT ( 3 ) GLOBAL_UNCERTAINTY_ASSIGNED_CONTEXT ( ( #56 ) ) GLOBAL_UNIT_ASSIGNED_CONTEXT ( ( #190, #79, #76 ) ) REPRESENTATION_CONTEXT ( 'NONE', 'WORKASPACE' ) );
#44 = VERTEX_POINT ( 'NONE', #179 ) ;
#45 = EDGE_LOOP ( 'NONE', ( #64, #118, #235, #42 ) ) ;
#46 = CARTESIAN_POINT ( 'NONE',  ( -2.499999999999999556, 2.500000000000000000, 0.1000000000000000056 ) ) ;
#47 = PRODUCT_DEFINITION ( 'UNKNOWN', '', #165, #175 ) ;
#48 = FACE_OUTER_BOUND ( 'NONE', #10, .T. ) ;
#49 = PLANE ( 'NONE',  #233 ) ;
#50 = CARTESIAN_POINT ( 'NONE',  ( -2.499999999999999556, 2.500000000000000000, 0.1000000000000000056 ) ) ;
#51 = VECTOR ( 'NONE', #166, 1000.000000000000000 ) ;
#52 = FACE_OUTER_BOUND ( 'NONE', #63, .T. ) ;
#53 = APPROVAL_STATUS ( 'not_yet_approved' ) ;
#54 = DATE_TIME_ROLE ( 'classification_date' ) ;
#55 = PERSON_AND_ORGANIZATION ( #211, #60 ) ;
#56 = UNCERTAINTY_MEASURE_WITH_UNIT (LENGTH_MEASURE( 1.000000000000000082E-05 ), #190, 'distance_accuracy_value', 'NONE');
#57 = APPROVAL ( #154, 'UNSPECIFIED' ) ;
#58 = PERSON_AND_ORGANIZATION ( #211, #60 ) ;
#59 = ADVANCED_FACE ( 'NONE', ( #181 ), #17, .F. ) ;
#60 = ORGANIZATION ( 'UNSPECIFIED', 'UNSPECIFIED', '' ) ;
#61 = APPROVAL_ROLE ( '' ) ;
#62 = VERTEX_POINT ( 'NONE', #237 ) ;
#63 = EDGE_LOOP ( 'NONE', ( #101, #232, #199, #212 ) ) ;
#64 = ORIENTED_EDGE ( 'NONE', *, *, #200, .T. ) ;
#65 = ADVANCED_FACE ( 'NONE', ( #33 ), #124, .F. ) ;
#66 = CC_DESIGN_PERSON_AND_ORGANIZATION_ASSIGNMENT ( #55, #171, ( #165 ) ) ;
#67 = LINE ( 'NONE', #138, #115 ) ;
#68 = ADVANCED_BREP_SHAPE_REPRESENTATION ( 'Web Model 20199_20199', ( #72, #201 ), #43 ) ;
#69 = CARTESIAN_POINT ( 'NONE',  ( 0.000000000000000000, 0.000000000000000000, 0.1000000000000000056 ) ) ;
#70 = LINE ( 'NONE', #220, #160 ) ;
#71 = DIRECTION ( 'NONE',  ( -0.000000000000000000, 0.000000000000000000, 1.000000000000000000 ) ) ;
#72 = MANIFOLD_SOLID_BREP ( 'Boss-Extrude1', #108 ) ;
#73 = VECTOR ( 'NONE', #123, 1000.000000000000000 ) ;
#74 = PLANE ( 'NONE',  #209 ) ;
#75 = COORDINATED_UNIVERSAL_TIME_OFFSET ( 5, 0, .BEHIND. ) ;
#76 =( NAMED_UNIT ( * ) SI_UNIT ( $, .STERADIAN. ) SOLID_ANGLE_UNIT ( ) );
#77 = APPROVAL_DATE_TIME ( #6, #41 ) ;
#78 = LOCAL_TIME ( 9, 45, 24.00000000000000000, #75 ) ;
#79 =( NAMED_UNIT ( * ) PLANE_ANGLE_UNIT ( ) SI_UNIT ( $, .RADIAN. ) );
#80 = CALENDAR_DATE ( 2022, 1, 3 ) ;
#81 = ORIENTED_EDGE ( 'NONE', *, *, #193, .T. ) ;
#82 = AXIS2_PLACEMENT_3D ( 'NONE', #142, #202, #1 ) ;
#83 = CARTESIAN_POINT ( 'NONE',  ( 2.500000000000000444, 2.500000000000000000, 0.000000000000000000 ) ) ;
#84 = COORDINATED_UNIVERSAL_TIME_OFFSET ( 5, 0, .BEHIND. ) ;
#85 = ORIENTED_EDGE ( 'NONE', *, *, #102, .T. ) ;
#86 = CC_DESIGN_PERSON_AND_ORGANIZATION_ASSIGNMENT ( #35, #210, ( #144 ) ) ;
#87 = LINE ( 'NONE', #162, #37 ) ;
#88 = CARTESIAN_POINT ( 'NONE',  ( -2.499999999999999556, 2.500000000000000000, 0.000000000000000000 ) ) ;
#89 = LOCAL_TIME ( 9, 45, 24.00000000000000000, #130 ) ;
#90 = LINE ( 'NONE', #92, #7 ) ;
#91 = CARTESIAN_POINT ( 'NONE',  ( -2.499999999999999112, -2.500000000000000000, 0.000000000000000000 ) ) ;
#92 = CARTESIAN_POINT ( 'NONE',  ( 2.500000000000000444, 2.500000000000000000, 0.1000000000000000056 ) ) ;
#93 = LOCAL_TIME ( 9, 45, 24.00000000000000000, #151 ) ;
#94 = COORDINATED_UNIVERSAL_TIME_OFFSET ( 5, 0, .BEHIND. ) ;
#95 = EDGE_CURVE ( 'NONE', #196, #117, #70, .T. ) ;
#96 = APPROVAL_ROLE ( '' ) ;
#97 = DATE_TIME_ROLE ( 'creation_date' ) ;
#98 = ORIENTED_EDGE ( 'NONE', *, *, #126, .F. ) ;
#99 = CC_DESIGN_DATE_AND_TIME_ASSIGNMENT ( #36, #54, ( #150 ) ) ;
#100 = LINE ( 'NONE', #83, #170 ) ;
#101 = ORIENTED_EDGE ( 'NONE', *, *, #112, .T. ) ;
#102 = EDGE_CURVE ( 'NONE', #135, #156, #182, .T. ) ;
#103 = ORIENTED_EDGE ( 'NONE', *, *, #112, .F. ) ;
#104 = FACE_OUTER_BOUND ( 'NONE', #133, .T. ) ;
#105 = LINE ( 'NONE', #88, #73 ) ;
#106 = DIRECTION ( 'NONE',  ( 1.000000000000000000, 0.000000000000000000, 0.000000000000000000 ) ) ;
#107 = APPLICATION_CONTEXT ( 'configuration controlled 3d designs of mechanical parts and assemblies' ) ;
#108 = CLOSED_SHELL ( 'NONE', ( #59, #132, #176, #153, #145, #65 ) ) ;
#109 = DIRECTION ( 'NONE',  ( 0.000000000000000000, -1.000000000000000000, 0.000000000000000000 ) ) ;
#110 = DIRECTION ( 'NONE',  ( 0.000000000000000000, -0.000000000000000000, 1.000000000000000000 ) ) ;
#111 = PERSON_AND_ORGANIZATION ( #211, #60 ) ;
#112 = EDGE_CURVE ( 'NONE', #135, #120, #90, .T. ) ;
#113 = AXIS2_PLACEMENT_3D ( 'NONE', #46, #121, #163 ) ;
#114 = CARTESIAN_POINT ( 'NONE',  ( -2.499999999999999556, 2.500000000000000000, 0.1000000000000000056 ) ) ;
#115 = VECTOR ( 'NONE', #122, 1000.000000000000000 ) ;
#116 = CC_DESIGN_APPROVAL ( #57, ( #150 ) ) ;
#117 = VERTEX_POINT ( 'NONE', #183 ) ;
#118 = ORIENTED_EDGE ( 'NONE', *, *, #18, .F. ) ;
#119 = CC_DESIGN_APPROVAL ( #189, ( #165 ) ) ;
#120 = VERTEX_POINT ( 'NONE', #219 ) ;
#121 = DIRECTION ( 'NONE',  ( 1.000000000000000000, 8.673617379884035472E-17, -0.000000000000000000 ) ) ;
#122 = DIRECTION ( 'NONE',  ( -1.000000000000000000, -0.000000000000000000, -0.000000000000000000 ) ) ;
#123 = DIRECTION ( 'NONE',  ( 8.673617379884035472E-17, -1.000000000000000000, 0.000000000000000000 ) ) ;
#124 = PLANE ( 'NONE',  #146 ) ;
#125 = DIRECTION ( 'NONE',  ( 0.000000000000000000, 1.000000000000000000, 0.000000000000000000 ) ) ;
#126 = EDGE_CURVE ( 'NONE', #44, #156, #206, .T. ) ;
#127 = SECURITY_CLASSIFICATION_LEVEL ( 'unclassified' ) ;
#128 = PERSON_AND_ORGANIZATION ( #211, #60 ) ;
#129 = APPLICATION_PROTOCOL_DEFINITION ( 'international standard', 'config_control_design', 1994, #188 ) ;
#130 = COORDINATED_UNIVERSAL_TIME_OFFSET ( 5, 0, .BEHIND. ) ;
#131 = APPROVAL_PERSON_ORGANIZATION ( #128, #57, #61 ) ;
#132 = ADVANCED_FACE ( 'NONE', ( #104 ), #31, .F. ) ;
#133 = EDGE_LOOP ( 'NONE', ( #81, #229, #198, #215 ) ) ;
#134 = SHAPE_DEFINITION_REPRESENTATION ( #169, #68 ) ;
#135 = VERTEX_POINT ( 'NONE', #2 ) ;
#136 = CALENDAR_DATE ( 2022, 1, 3 ) ;
#137 = EDGE_LOOP ( 'NONE', ( #213, #98, #217, #12 ) ) ;
#138 = CARTESIAN_POINT ( 'NONE',  ( -2.499999999999999556, 2.500000000000000000, 0.000000000000000000 ) ) ;
#139 = CC_DESIGN_APPROVAL ( #41, ( #47 ) ) ;
#140 = DIRECTION ( 'NONE',  ( 8.673617379884035472E-17, -1.000000000000000000, 0.000000000000000000 ) ) ;
#141 = CC_DESIGN_PERSON_AND_ORGANIZATION_ASSIGNMENT ( #208, #4, ( #150 ) ) ;
#142 = CARTESIAN_POINT ( 'NONE',  ( 2.500000000000000444, 2.500000000000000000, 0.1000000000000000056 ) ) ;
#143 = DIRECTION ( 'NONE',  ( 1.000000000000000000, 0.000000000000000000, 0.000000000000000000 ) ) ;
#144 = PRODUCT ( 'Web Model 20199_20199', 'Web Model 20199_20199', '', ( #194 ) ) ;
#145 = ADVANCED_FACE ( 'NONE', ( #52 ), #49, .T. ) ;
#146 = AXIS2_PLACEMENT_3D ( 'NONE', #15, #30, #106 ) ;
#147 = PLANE ( 'NONE',  #113 ) ;
#148 = DIRECTION ( 'NONE',  ( 1.000000000000000000, 0.000000000000000000, 0.000000000000000000 ) ) ;
#149 = APPLICATION_PROTOCOL_DEFINITION ( 'international standard', 'config_control_design', 1994, #107 ) ;
#150 = SECURITY_CLASSIFICATION ( '', '', #127 ) ;
#151 = COORDINATED_UNIVERSAL_TIME_OFFSET ( 5, 0, .BEHIND. ) ;
#152 = APPROVAL_STATUS ( 'not_yet_approved' ) ;
#153 = ADVANCED_FACE ( 'NONE', ( #48 ), #74, .F. ) ;
#154 = APPROVAL_STATUS ( 'not_yet_approved' ) ;
#155 = PRODUCT_RELATED_PRODUCT_CATEGORY ( 'detail', '', ( #144 ) ) ;
#156 = VERTEX_POINT ( 'NONE', #13 ) ;
#157 = DIRECTION ( 'NONE',  ( -0.000000000000000000, 1.000000000000000000, -0.000000000000000000 ) ) ;
#158 = ORIENTED_EDGE ( 'NONE', *, *, #18, .T. ) ;
#159 = DATE_AND_TIME ( #136, #192 ) ;
#160 = VECTOR ( 'NONE', #140, 1000.000000000000000 ) ;
#161 = EDGE_LOOP ( 'NONE', ( #234, #11, #103, #85 ) ) ;
#162 = CARTESIAN_POINT ( 'NONE',  ( -2.499999999999999112, -2.500000000000000000, 0.1000000000000000056 ) ) ;
#163 = DIRECTION ( 'NONE',  ( -8.673617379884035472E-17, 1.000000000000000000, 0.000000000000000000 ) ) ;
#164 = APPROVAL_PERSON_ORGANIZATION ( #5, #189, #185 ) ;
#165 = PRODUCT_DEFINITION_FORMATION_WITH_SPECIFIED_SOURCE ( 'ANY', '', #144, .NOT_KNOWN. ) ;
#166 = DIRECTION ( 'NONE',  ( 1.000000000000000000, 0.000000000000000000, 0.000000000000000000 ) ) ;
#167 = DIRECTION ( 'NONE',  ( 0.000000000000000000, -0.000000000000000000, -1.000000000000000000 ) ) ;
#168 = CARTESIAN_POINT ( 'NONE',  ( -2.499999999999999556, 2.500000000000000000, 0.1000000000000000056 ) ) ;
#169 = PRODUCT_DEFINITION_SHAPE ( 'NONE', 'NONE',  #47 ) ;
#170 = VECTOR ( 'NONE', #157, 1000.000000000000000 ) ;
#171 = PERSON_AND_ORGANIZATION_ROLE ( 'creator' ) ;
#172 = VECTOR ( 'NONE', #184, 1000.000000000000000 ) ;
#173 = CALENDAR_DATE ( 2022, 1, 3 ) ;
#174 = PERSON_AND_ORGANIZATION_ROLE ( 'design_supplier' ) ;
#175 = DESIGN_CONTEXT ( 'detailed design', #188, 'design' ) ;
#176 = ADVANCED_FACE ( 'NONE', ( #14 ), #147, .F. ) ;
#177 = LOCAL_TIME ( 9, 45, 24.00000000000000000, #94 ) ;
#178 = AXIS2_PLACEMENT_3D ( 'NONE', #168, #109, #167 ) ;
#179 = CARTESIAN_POINT ( 'NONE',  ( -2.499999999999999112, -2.500000000000000000, 0.000000000000000000 ) ) ;
#180 = EDGE_CURVE ( 'NONE', #117, #135, #87, .T. ) ;
#181 = FACE_OUTER_BOUND ( 'NONE', #161, .T. ) ;
#182 = LINE ( 'NONE', #221, #39 ) ;
#183 = CARTESIAN_POINT ( 'NONE',  ( -2.499999999999999112, -2.500000000000000000, 0.1000000000000000056 ) ) ;
#184 = DIRECTION ( 'NONE',  ( -0.000000000000000000, -0.000000000000000000, -1.000000000000000000 ) ) ;
#185 = APPROVAL_ROLE ( '' ) ;
#186 = VECTOR ( 'NONE', #22, 1000.000000000000000 ) ;
#187 = LINE ( 'NONE', #223, #25 ) ;
#188 = APPLICATION_CONTEXT ( 'configuration controlled 3d designs of mechanical parts and assemblies' ) ;
#189 = APPROVAL ( #53, 'UNSPECIFIED' ) ;
#190 =( LENGTH_UNIT ( ) NAMED_UNIT ( * ) SI_UNIT ( .MILLI., .METRE. ) );
#191 = PERSON_AND_ORGANIZATION_ROLE ( 'creator' ) ;
#192 = LOCAL_TIME ( 9, 45, 24.00000000000000000, #84 ) ;
#193 = EDGE_CURVE ( 'NONE', #28, #62, #67, .T. ) ;
#194 = MECHANICAL_CONTEXT ( 'NONE', #107, 'mechanical' ) ;
#195 = ORIENTED_EDGE ( 'NONE', *, *, #126, .T. ) ;
#196 = VERTEX_POINT ( 'NONE', #204 ) ;
#197 = ORIENTED_EDGE ( 'NONE', *, *, #102, .F. ) ;
#198 = ORIENTED_EDGE ( 'NONE', *, *, #24, .F. ) ;
#199 = ORIENTED_EDGE ( 'NONE', *, *, #95, .T. ) ;
#200 = EDGE_CURVE ( 'NONE', #62, #44, #105, .T. ) ;
#201 = AXIS2_PLACEMENT_3D ( 'NONE', #19, #21, #148 ) ;
#202 = DIRECTION ( 'NONE',  ( -1.000000000000000000, 0.000000000000000000, 0.000000000000000000 ) ) ;
#203 = CC_DESIGN_DATE_AND_TIME_ASSIGNMENT ( #227, #97, ( #47 ) ) ;
#204 = CARTESIAN_POINT ( 'NONE',  ( -2.499999999999999556, 2.500000000000000000, 0.1000000000000000056 ) ) ;
#205 = LINE ( 'NONE', #114, #186 ) ;
#206 = LINE ( 'NONE', #91, #51 ) ;
#207 = CARTESIAN_POINT ( 'NONE',  ( 2.500000000000000444, 2.500000000000000000, 0.000000000000000000 ) ) ;
#208 = PERSON_AND_ORGANIZATION ( #211, #60 ) ;
#209 = AXIS2_PLACEMENT_3D ( 'NONE', #222, #125, #110 ) ;
#210 = PERSON_AND_ORGANIZATION_ROLE ( 'design_owner' ) ;
#211 = PERSON ( 'UNSPECIFIED', 'UNSPECIFIED', 'UNSPECIFIED', ('UNSPECIFIED'), ('UNSPECIFIED'), ('UNSPECIFIED') ) ;
#212 = ORIENTED_EDGE ( 'NONE', *, *, #180, .T. ) ;
#213 = ORIENTED_EDGE ( 'NONE', *, *, #9, .F. ) ;
#214 = VECTOR ( 'NONE', #16, 1000.000000000000000 ) ;
#215 = ORIENTED_EDGE ( 'NONE', *, *, #224, .T. ) ;
#216 = EDGE_CURVE ( 'NONE', #196, #62, #205, .T. ) ;
#217 = ORIENTED_EDGE ( 'NONE', *, *, #200, .F. ) ;
#218 = APPROVAL_PERSON_ORGANIZATION ( #111, #41, #96 ) ;
#219 = CARTESIAN_POINT ( 'NONE',  ( 2.500000000000000444, 2.500000000000000000, 0.1000000000000000056 ) ) ;
#220 = CARTESIAN_POINT ( 'NONE',  ( -2.499999999999999556, 2.500000000000000000, 0.1000000000000000056 ) ) ;
#221 = CARTESIAN_POINT ( 'NONE',  ( 2.500000000000000444, -2.500000000000000000, 0.1000000000000000056 ) ) ;
#222 = CARTESIAN_POINT ( 'NONE',  ( -2.499999999999999112, -2.500000000000000000, 0.1000000000000000056 ) ) ;
#223 = CARTESIAN_POINT ( 'NONE',  ( 2.500000000000000444, 2.500000000000000000, 0.1000000000000000056 ) ) ;
#224 = EDGE_CURVE ( 'NONE', #120, #28, #187, .T. ) ;
#225 = CALENDAR_DATE ( 2022, 1, 3 ) ;
#226 = CC_DESIGN_PERSON_AND_ORGANIZATION_ASSIGNMENT ( #228, #174, ( #165 ) ) ;
#227 = DATE_AND_TIME ( #80, #93 ) ;
#228 = PERSON_AND_ORGANIZATION ( #211, #60 ) ;
#229 = ORIENTED_EDGE ( 'NONE', *, *, #216, .F. ) ;
#230 = LINE ( 'NONE', #27, #172 ) ;
#231 = CC_DESIGN_PERSON_AND_ORGANIZATION_ASSIGNMENT ( #58, #191, ( #47 ) ) ;
#232 = ORIENTED_EDGE ( 'NONE', *, *, #24, .T. ) ;
#233 = AXIS2_PLACEMENT_3D ( 'NONE', #69, #71, #143 ) ;
#234 = ORIENTED_EDGE ( 'NONE', *, *, #9, .T. ) ;
#235 = ORIENTED_EDGE ( 'NONE', *, *, #95, .F. ) ;
#236 = DIRECTION ( 'NONE',  ( 1.000000000000000000, 0.000000000000000000, 0.000000000000000000 ) ) ;
#237 = CARTESIAN_POINT ( 'NONE',  ( -2.499999999999999556, 2.500000000000000000, 0.000000000000000000 ) ) ;
ENDSEC;
END-ISO-10303-21;
