ISO-10303-21;
HEADER;
FILE_DESCRIPTION (( 'STEP AP203' ),
    '1' );
FILE_NAME ('4306-E0W.STEP',
    '2015-06-17T20:42:53',
    ( 'admin' ),
    ( '' ),
    'SwSTEP 2.0',
    'SolidWorks 2014',
    '' );
FILE_SCHEMA (( 'CONFIG_CONTROL_DESIGN' ));
ENDSEC;

DATA;
#1 = MANIFOLD_SOLID_BREP ( '4306-001-1-solid1', #84 ) ;
#2 = DIRECTION ( 'NONE',  ( -1.000000000000000000, 0.0000000000000000000, 0.0000000000000000000 ) ) ;
#3 = CIRCLE ( 'NONE', #23, 2.499999999999999600 ) ;
#4 = VECTOR ( 'NONE', #95, 1000.000000000000000 ) ;
#5 = ORIENTED_EDGE ( 'NONE', *, *, #124, .F. ) ;
#6 = DIRECTION ( 'NONE',  ( 0.0000000000000000000, 0.0000000000000000000, -1.000000000000000000 ) ) ;
#7 = DIRECTION ( 'NONE',  ( 1.000000000000000000, 0.0000000000000000000, 0.0000000000000000000 ) ) ;
#8 = FACE_OUTER_BOUND ( 'NONE', #130, .T. ) ;
#9 = VERTEX_POINT ( 'NONE', #177 ) ;
#10 = ORIENTED_EDGE ( 'NONE', *, *, #55, .T. ) ;
#11 = AXIS2_PLACEMENT_3D ( 'NONE', #363, #340, #158 ) ;
#12 = PERSON_AND_ORGANIZATION_ROLE ( 'classification_officer' ) ;
#13 = APPROVAL_PERSON_ORGANIZATION ( #47, #244, #209 ) ;
#14 = AXIS2_PLACEMENT_3D ( 'NONE', #276, #327, #365 ) ;
#15 = APPLICATION_CONTEXT ( 'configuration controlled 3d designs of mechanical parts and assemblies' ) ;
#16 = EDGE_CURVE ( 'NONE', #243, #286, #20, .T. ) ;
#17 = FACE_OUTER_BOUND ( 'NONE', #32, .T. ) ;
#18 = ORIENTED_EDGE ( 'NONE', *, *, #298, .T. ) ;
#19 = PERSON ( 'UNSPECIFIED', 'UNSPECIFIED', 'UNSPECIFIED', ('UNSPECIFIED'), ('UNSPECIFIED'), ('UNSPECIFIED') ) ;
#20 = LINE ( 'NONE', #147, #313 ) ;
#21 = DIRECTION ( 'NONE',  ( 1.000000000000000000, 0.0000000000000000000, 0.0000000000000000000 ) ) ;
#22 = PERSON_AND_ORGANIZATION ( #19, #353 ) ;
#23 = AXIS2_PLACEMENT_3D ( 'NONE', #69, #324, #2 ) ;
#24 = PERSON_AND_ORGANIZATION ( #19, #353 ) ;
#25 = DATE_AND_TIME ( #343, #281 ) ;
#26 = EDGE_CURVE ( 'NONE', #243, #332, #48, .T. ) ;
#27 = CIRCLE ( 'NONE', #212, 2.263723431014620600 ) ;
#28 = DIRECTION ( 'NONE',  ( 1.000000000000000000, 0.0000000000000000000, 0.0000000000000000000 ) ) ;
#29 = APPROVAL_PERSON_ORGANIZATION ( #24, #110, #253 ) ;
#30 = DIRECTION ( 'NONE',  ( 1.000000000000000000, 0.0000000000000000000, 0.0000000000000000000 ) ) ;
#31 = ADVANCED_FACE ( 'NONE', ( #154 ), #335, .T. ) ;
#32 = EDGE_LOOP ( 'NONE', ( #125, #214, #80, #192 ) ) ;
#33 = CONICAL_SURFACE ( 'NONE', #11, 2.263723431014629000, 0.6413690947502950200 ) ;
#34 = ORIENTED_EDGE ( 'NONE', *, *, #56, .F. ) ;
#35 = DIRECTION ( 'NONE',  ( 0.0000000000000000000, 1.000000000000000000, 0.0000000000000000000 ) ) ;
#36 = DIRECTION ( 'NONE',  ( -0.5982930264130975600, 7.326976397489827700E-017, 0.8012773892638281900 ) ) ;
#37 = ADVANCED_BREP_SHAPE_REPRESENTATION ( '4306-E0W', ( #1, #299 ), #87 ) ;
#38 =( NAMED_UNIT ( * ) PLANE_ANGLE_UNIT ( ) SI_UNIT ( $, .RADIAN. ) );
#39 = CIRCLE ( 'NONE', #263, 2.263723431014620600 ) ;
#40 = EDGE_LOOP ( 'NONE', ( #245, #200, #185, #72 ) ) ;
#41 = EDGE_CURVE ( 'NONE', #173, #345, #300, .T. ) ;
#42 = LOCAL_TIME ( 16, 42, 53.00000000000000000, #129 ) ;
#43 = COORDINATED_UNIVERSAL_TIME_OFFSET ( 5, 0, .BEHIND. ) ;
#44 = DATE_TIME_ROLE ( 'creation_date' ) ;
#45 = ORIENTED_EDGE ( 'NONE', *, *, #266, .F. ) ;
#46 = AXIS2_PLACEMENT_3D ( 'NONE', #111, #74, #163 ) ;
#47 = PERSON_AND_ORGANIZATION ( #19, #353 ) ;
#48 = CIRCLE ( 'NONE', #79, 2.263723431014620600 ) ;
#49 = DIRECTION ( 'NONE',  ( 0.0000000000000000000, 0.0000000000000000000, 1.000000000000000000 ) ) ;
#50 = COORDINATED_UNIVERSAL_TIME_OFFSET ( 5, 0, .BEHIND. ) ;
#51 = PRODUCT_DEFINITION_SHAPE ( 'NONE', 'NONE',  #171 ) ;
#52 = ORIENTED_EDGE ( 'NONE', *, *, #56, .T. ) ;
#53 = CARTESIAN_POINT ( 'NONE',  ( -2.263723431014629000, 0.0000000000000000000, 0.8038553743508289900 ) ) ;
#54 = CC_DESIGN_PERSON_AND_ORGANIZATION_ASSIGNMENT ( #63, #282, ( #279 ) ) ;
#55 = EDGE_CURVE ( 'NONE', #9, #108, #107, .T. ) ;
#56 = EDGE_CURVE ( 'NONE', #345, #243, #39, .T. ) ;
#57 = CIRCLE ( 'NONE', #104, 2.499999999999999600 ) ;
#58 = ADVANCED_FACE ( 'NONE', ( #78 ), #75, .T. ) ;
#59 = DIRECTION ( 'NONE',  ( -1.000000000000000000, 0.0000000000000000000, 0.0000000000000000000 ) ) ;
#60 = PRODUCT_DEFINITION_FORMATION_WITH_SPECIFIED_SOURCE ( 'ANY', '', #279, .NOT_KNOWN. ) ;
#61 =( LENGTH_UNIT ( ) NAMED_UNIT ( * ) SI_UNIT ( .MILLI., .METRE. ) );
#62 = DIRECTION ( 'NONE',  ( -0.0000000000000000000, -0.0000000000000000000, 1.000000000000000000 ) ) ;
#63 = PERSON_AND_ORGANIZATION ( #19, #353 ) ;
#64 = DIRECTION ( 'NONE',  ( -0.5982930264130988900, 0.0000000000000000000, -0.8012773892638273000 ) ) ;
#65 = EDGE_CURVE ( 'NONE', #221, #291, #260, .T. ) ;
#66 = CIRCLE ( 'NONE', #155, 8.800000000000043300 ) ;
#67 = ORIENTED_EDGE ( 'NONE', *, *, #100, .F. ) ;
#68 = DIRECTION ( 'NONE',  ( -1.000000000000000000, 0.0000000000000000000, 0.0000000000000000000 ) ) ;
#69 = CARTESIAN_POINT ( 'NONE',  ( 0.0000000000000000000, 0.0000000000000000000, 0.4874166662551544000 ) ) ;
#70 = DIRECTION ( 'NONE',  ( 1.000000000000000000, -0.0000000000000000000, 0.0000000000000000000 ) ) ;
#71 = CIRCLE ( 'NONE', #287, 2.263723431014628600 ) ;
#72 = ORIENTED_EDGE ( 'NONE', *, *, #96, .F. ) ;
#73 = EDGE_CURVE ( 'NONE', #332, #173, #27, .T. ) ;
#74 = DIRECTION ( 'NONE',  ( -0.0000000000000000000, -0.0000000000000000000, 1.000000000000000000 ) ) ;
#75 = CONICAL_SURFACE ( 'NONE', #215, 2.499999999999999600, 0.6413690947502933600 ) ;
#76 = VERTEX_POINT ( 'NONE', #82 ) ;
#77 = CARTESIAN_POINT ( 'NONE',  ( 0.0000000000000000000, 0.0000000000000000000, -0.4874166662551440200 ) ) ;
#78 = FACE_OUTER_BOUND ( 'NONE', #183, .T. ) ;
#79 = AXIS2_PLACEMENT_3D ( 'NONE', #239, #360, #349 ) ;
#80 = ORIENTED_EDGE ( 'NONE', *, *, #73, .T. ) ;
#81 = EDGE_CURVE ( 'NONE', #115, #367, #71, .T. ) ;
#82 = CARTESIAN_POINT ( 'NONE',  ( 0.0000000000000000000, 5.388445916248381600E-016, 1.100000000000005400 ) ) ;
#83 = FACE_OUTER_BOUND ( 'NONE', #217, .T. ) ;
#84 = CLOSED_SHELL ( 'NONE', ( #193, #58, #136, #341, #31, #218, #166, #85, #305, #272 ) ) ;
#85 = ADVANCED_FACE ( 'NONE', ( #88 ), #366, .T. ) ;
#86 = CARTESIAN_POINT ( 'NONE',  ( 2.263723431014629000, 2.772261653946929700E-016, 0.8038553743508289900 ) ) ;
#87 =( GEOMETRIC_REPRESENTATION_CONTEXT ( 3 ) GLOBAL_UNCERTAINTY_ASSIGNED_CONTEXT ( ( #307 ) ) GLOBAL_UNIT_ASSIGNED_CONTEXT ( ( #61, #38, #181 ) ) REPRESENTATION_CONTEXT ( 'NONE', 'WORKASPACE' ) );
#88 = FACE_OUTER_BOUND ( 'NONE', #329, .T. ) ;
#89 = ORIENTED_EDGE ( 'NONE', *, *, #270, .T. ) ;
#90 = ORIENTED_EDGE ( 'NONE', *, *, #26, .F. ) ;
#91 = DATE_AND_TIME ( #205, #42 ) ;
#92 = CIRCLE ( 'NONE', #116, 2.263723431014628600 ) ;
#93 = DIRECTION ( 'NONE',  ( -1.000000000000000000, 0.0000000000000000000, 0.0000000000000000000 ) ) ;
#94 = ORIENTED_EDGE ( 'NONE', *, *, #152, .T. ) ;
#95 = DIRECTION ( 'NONE',  ( -0.0000000000000000000, -0.0000000000000000000, 1.000000000000000000 ) ) ;
#96 = EDGE_CURVE ( 'NONE', #286, #278, #210, .T. ) ;
#97 = DIRECTION ( 'NONE',  ( -0.0000000000000000000, -0.0000000000000000000, 1.000000000000000000 ) ) ;
#98 = CARTESIAN_POINT ( 'NONE',  ( 2.263723431014628600, 2.916939325907655400E-016, 0.8038553743508289900 ) ) ;
#99 = CARTESIAN_POINT ( 'NONE',  ( 2.499999999999999600, 0.0000000000000000000, 1.100000000000000100 ) ) ;
#100 = EDGE_CURVE ( 'NONE', #173, #221, #145, .T. ) ;
#101 = DIRECTION ( 'NONE',  ( 0.0000000000000000000, 0.0000000000000000000, -1.000000000000000000 ) ) ;
#102 = MECHANICAL_CONTEXT ( 'NONE', #15, 'mechanical' ) ;
#103 = CYLINDRICAL_SURFACE ( 'NONE', #161, 2.499999999999999600 ) ;
#104 = AXIS2_PLACEMENT_3D ( 'NONE', #310, #97, #21 ) ;
#105 = ORIENTED_EDGE ( 'NONE', *, *, #334, .F. ) ;
#106 = PERSON_AND_ORGANIZATION_ROLE ( 'creator' ) ;
#107 = CIRCLE ( 'NONE', #271, 2.263723431014628600 ) ;
#108 = VERTEX_POINT ( 'NONE', #179 ) ;
#109 = APPROVAL_DATE_TIME ( #134, #110 ) ;
#110 = APPROVAL ( #149, 'UNSPECIFIED' ) ;
#111 = CARTESIAN_POINT ( 'NONE',  ( 0.0000000000000000000, 0.0000000000000000000, -0.4874166662551440200 ) ) ;
#112 = CARTESIAN_POINT ( 'NONE',  ( 2.499999999999999600, 0.0000000000000000000, -0.4874166662551440200 ) ) ;
#113 = CARTESIAN_POINT ( 'NONE',  ( 0.0000000000000000000, 0.0000000000000000000, -7.700000000000040100 ) ) ;
#114 = SECURITY_CLASSIFICATION ( '', '', #242 ) ;
#115 = VERTEX_POINT ( 'NONE', #117 ) ;
#116 = AXIS2_PLACEMENT_3D ( 'NONE', #151, #140, #144 ) ;
#117 = CARTESIAN_POINT ( 'NONE',  ( -2.772261653946929200E-016, -2.263723431014628100, 0.8038553743508289900 ) ) ;
#118 = EDGE_LOOP ( 'NONE', ( #10, #18, #232, #204 ) ) ;
#119 = CALENDAR_DATE ( 2015, 17, 6 ) ;
#120 = CARTESIAN_POINT ( 'NONE',  ( 0.0000000000000000000, 0.0000000000000000000, -0.8038553743508289900 ) ) ;
#121 = PRODUCT_RELATED_PRODUCT_CATEGORY ( 'detail', '', ( #279 ) ) ;
#122 = CYLINDRICAL_SURFACE ( 'NONE', #296, 2.499999999999999600 ) ;
#123 = DIRECTION ( 'NONE',  ( 0.0000000000000000000, 0.0000000000000000000, -1.000000000000000000 ) ) ;
#124 = EDGE_CURVE ( 'NONE', #221, #286, #57, .T. ) ;
#125 = ORIENTED_EDGE ( 'NONE', *, *, #261, .F. ) ;
#126 = CIRCLE ( 'NONE', #46, 2.499999999999999600 ) ;
#127 = ORIENTED_EDGE ( 'NONE', *, *, #16, .F. ) ;
#128 = CARTESIAN_POINT ( 'NONE',  ( 0.0000000000000000000, 0.0000000000000000000, 1.100000000000000100 ) ) ;
#129 = COORDINATED_UNIVERSAL_TIME_OFFSET ( 5, 0, .BEHIND. ) ;
#130 = EDGE_LOOP ( 'NONE', ( #328, #274, #262, #241, #182 ) ) ;
#131 = CC_DESIGN_APPROVAL ( #244, ( #60 ) ) ;
#132 = CARTESIAN_POINT ( 'NONE',  ( 0.0000000000000000000, 0.0000000000000000000, 0.8038553743508289900 ) ) ;
#133 = CIRCLE ( 'NONE', #231, 8.800000000000045100 ) ;
#134 = DATE_AND_TIME ( #176, #315 ) ;
#135 = DIRECTION ( 'NONE',  ( -1.000000000000000000, 0.0000000000000000000, 0.0000000000000000000 ) ) ;
#136 = ADVANCED_FACE ( 'NONE', ( #17 ), #348, .T. ) ;
#137 = VERTEX_POINT ( 'NONE', #292 ) ;
#138 = CARTESIAN_POINT ( 'NONE',  ( 0.0000000000000000000, 0.0000000000000000000, 0.8038553743508289900 ) ) ;
#139 = DATE_AND_TIME ( #314, #289 ) ;
#140 = DIRECTION ( 'NONE',  ( -0.0000000000000000000, -0.0000000000000000000, 1.000000000000000000 ) ) ;
#141 = LOCAL_TIME ( 16, 42, 53.00000000000000000, #336 ) ;
#142 = CARTESIAN_POINT ( 'NONE',  ( 2.499999999999999600, 0.0000000000000000000, 0.4874166662551544000 ) ) ;
#143 = DIRECTION ( 'NONE',  ( 1.000000000000000000, 0.0000000000000000000, 0.0000000000000000000 ) ) ;
#144 = DIRECTION ( 'NONE',  ( -1.000000000000000000, 0.0000000000000000000, 0.0000000000000000000 ) ) ;
#145 = LINE ( 'NONE', #308, #361 ) ;
#146 = DIRECTION ( 'NONE',  ( -0.0000000000000000000, -0.0000000000000000000, 1.000000000000000000 ) ) ;
#147 = CARTESIAN_POINT ( 'NONE',  ( 2.499999999999999600, 0.0000000000000000000, -0.4874166662551440200 ) ) ;
#148 = ORIENTED_EDGE ( 'NONE', *, *, #96, .T. ) ;
#149 = APPROVAL_STATUS ( 'not_yet_approved' ) ;
#150 = DIRECTION ( 'NONE',  ( 1.000000000000000000, 0.0000000000000000000, 0.0000000000000000000 ) ) ;
#151 = CARTESIAN_POINT ( 'NONE',  ( 0.0000000000000000000, 0.0000000000000000000, 0.8038553743508289900 ) ) ;
#152 = EDGE_CURVE ( 'NONE', #9, #76, #66, .T. ) ;
#153 = CARTESIAN_POINT ( 'NONE',  ( -2.499999999999999600, 3.061616997868382600E-016, -0.4874166662551440200 ) ) ;
#154 = FACE_OUTER_BOUND ( 'NONE', #118, .T. ) ;
#155 = AXIS2_PLACEMENT_3D ( 'NONE', #113, #70, #123 ) ;
#156 = SPHERICAL_SURFACE ( 'NONE', #164, 8.800000000000045100 ) ;
#157 = CARTESIAN_POINT ( 'NONE',  ( 0.0000000000000000000, 0.0000000000000000000, -7.700000000000040100 ) ) ;
#158 = DIRECTION ( 'NONE',  ( -1.000000000000000000, 0.0000000000000000000, 0.0000000000000000000 ) ) ;
#159 = EDGE_CURVE ( 'NONE', #108, #291, #277, .T. ) ;
#160 = CIRCLE ( 'NONE', #302, 2.499999999999999600 ) ;
#161 = AXIS2_PLACEMENT_3D ( 'NONE', #342, #146, #28 ) ;
#162 = ORIENTED_EDGE ( 'NONE', *, *, #100, .T. ) ;
#163 = DIRECTION ( 'NONE',  ( 1.000000000000000000, 0.0000000000000000000, 0.0000000000000000000 ) ) ;
#164 = AXIS2_PLACEMENT_3D ( 'NONE', #265, #135, #35 ) ;
#165 = ORIENTED_EDGE ( 'NONE', *, *, #26, .T. ) ;
#166 = ADVANCED_FACE ( 'NONE', ( #83 ), #103, .T. ) ;
#167 = DIRECTION ( 'NONE',  ( -0.0000000000000000000, -0.0000000000000000000, 1.000000000000000000 ) ) ;
#168 = DATE_TIME_ROLE ( 'classification_date' ) ;
#169 = EDGE_LOOP ( 'NONE', ( #247, #344, #321, #94 ) ) ;
#170 = CC_DESIGN_APPROVAL ( #110, ( #171 ) ) ;
#171 = PRODUCT_DEFINITION ( 'UNKNOWN', '', #60, #188 ) ;
#172 = APPROVAL_STATUS ( 'not_yet_approved' ) ;
#173 = VERTEX_POINT ( 'NONE', #186 ) ;
#174 = DIRECTION ( 'NONE',  ( -1.000000000000000000, 0.0000000000000000000, 0.0000000000000000000 ) ) ;
#175 = APPLICATION_PROTOCOL_DEFINITION ( 'international standard', 'config_control_design', 1994, #15 ) ;
#176 = CALENDAR_DATE ( 2015, 17, 6 ) ;
#177 = CARTESIAN_POINT ( 'NONE',  ( 0.0000000000000000000, 2.263723431014628100, 0.8038553743508289900 ) ) ;
#178 = CARTESIAN_POINT ( 'NONE',  ( 0.0000000000000000000, 0.0000000000000000000, 0.0000000000000000000 ) ) ;
#179 = CARTESIAN_POINT ( 'NONE',  ( -2.263723431014628600, 0.0000000000000000000, 0.8038553743508289900 ) ) ;
#180 = PERSON_AND_ORGANIZATION ( #19, #353 ) ;
#181 =( NAMED_UNIT ( * ) SI_UNIT ( $, .STERADIAN. ) SOLID_ANGLE_UNIT ( ) );
#182 = ORIENTED_EDGE ( 'NONE', *, *, #364, .F. ) ;
#183 = EDGE_LOOP ( 'NONE', ( #252, #162, #105, #127, #34 ) ) ;
#184 = CC_DESIGN_PERSON_AND_ORGANIZATION_ASSIGNMENT ( #275, #280, ( #60 ) ) ;
#185 = ORIENTED_EDGE ( 'NONE', *, *, #319, .T. ) ;
#186 = CARTESIAN_POINT ( 'NONE',  ( -2.263723431014620600, 2.916939325907651500E-016, -0.8038553743508289900 ) ) ;
#187 = APPROVAL_DATE_TIME ( #25, #244 ) ;
#188 = DESIGN_CONTEXT ( 'detailed design', #238, 'design' ) ;
#189 = CARTESIAN_POINT ( 'NONE',  ( 0.0000000000000000000, 0.0000000000000000000, 0.8038553743508289900 ) ) ;
#190 = CARTESIAN_POINT ( 'NONE',  ( 0.0000000000000000000, 0.0000000000000000000, 7.700000000000040100 ) ) ;
#191 = CC_DESIGN_PERSON_AND_ORGANIZATION_ASSIGNMENT ( #303, #12, ( #114 ) ) ;
#192 = ORIENTED_EDGE ( 'NONE', *, *, #41, .T. ) ;
#193 = ADVANCED_FACE ( 'NONE', ( #195 ), #33, .T. ) ;
#194 = AXIS2_PLACEMENT_3D ( 'NONE', #268, #301, #226 ) ;
#195 = FACE_OUTER_BOUND ( 'NONE', #269, .T. ) ;
#196 = DIRECTION ( 'NONE',  ( 0.0000000000000000000, 1.000000000000000000, 0.0000000000000000000 ) ) ;
#197 = CARTESIAN_POINT ( 'NONE',  ( -2.772261653946924200E-016, -2.263723431014624600, -0.8038553743508289900 ) ) ;
#198 = DIRECTION ( 'NONE',  ( 1.000000000000000000, 0.0000000000000000000, 0.0000000000000000000 ) ) ;
#199 = ORIENTED_EDGE ( 'NONE', *, *, #364, .T. ) ;
#200 = ORIENTED_EDGE ( 'NONE', *, *, #65, .T. ) ;
#201 = DIRECTION ( 'NONE',  ( -1.000000000000000000, 0.0000000000000000000, 0.0000000000000000000 ) ) ;
#202 = ORIENTED_EDGE ( 'NONE', *, *, #159, .F. ) ;
#203 = APPROVAL_DATE_TIME ( #91, #339 ) ;
#204 = ORIENTED_EDGE ( 'NONE', *, *, #152, .F. ) ;
#205 = CALENDAR_DATE ( 2015, 17, 6 ) ;
#206 = DIRECTION ( 'NONE',  ( -0.0000000000000000000, -0.0000000000000000000, 1.000000000000000000 ) ) ;
#207 = DIRECTION ( 'NONE',  ( 0.0000000000000000000, 0.0000000000000000000, -1.000000000000000000 ) ) ;
#208 = CARTESIAN_POINT ( 'NONE',  ( 0.0000000000000000000, 0.0000000000000000000, 7.700000000000040100 ) ) ;
#209 = APPROVAL_ROLE ( '' ) ;
#210 = LINE ( 'NONE', #99, #4 ) ;
#211 = DIRECTION ( 'NONE',  ( 0.5982930264130975600, 0.0000000000000000000, 0.8012773892638281900 ) ) ;
#212 = AXIS2_PLACEMENT_3D ( 'NONE', #120, #101, #337 ) ;
#213 = EDGE_CURVE ( 'NONE', #115, #76, #326, .T. ) ;
#214 = ORIENTED_EDGE ( 'NONE', *, *, #317, .T. ) ;
#215 = AXIS2_PLACEMENT_3D ( 'NONE', #77, #62, #198 ) ;
#216 = CARTESIAN_POINT ( 'NONE',  ( 0.0000000000000000000, 0.0000000000000000000, 0.4874166662551544000 ) ) ;
#217 = EDGE_LOOP ( 'NONE', ( #355, #323, #148, #199 ) ) ;
#218 = ADVANCED_FACE ( 'NONE', ( #220 ), #156, .T. ) ;
#219 = CC_DESIGN_PERSON_AND_ORGANIZATION_ASSIGNMENT ( #180, #229, ( #60 ) ) ;
#220 = FACE_OUTER_BOUND ( 'NONE', #169, .T. ) ;
#221 = VERTEX_POINT ( 'NONE', #153 ) ;
#222 = ORIENTED_EDGE ( 'NONE', *, *, #317, .F. ) ;
#223 = CONICAL_SURFACE ( 'NONE', #237, 2.263723431014629000, 0.6413690947502950200 ) ;
#224 = DIRECTION ( 'NONE',  ( -0.0000000000000000000, -0.0000000000000000000, 1.000000000000000000 ) ) ;
#225 = AXIS2_PLACEMENT_3D ( 'NONE', #208, #201, #293 ) ;
#226 = DIRECTION ( 'NONE',  ( -1.224646799147353200E-016, -1.000000000000000000, 0.0000000000000000000 ) ) ;
#227 = ORIENTED_EDGE ( 'NONE', *, *, #261, .T. ) ;
#228 = CC_DESIGN_APPROVAL ( #339, ( #114 ) ) ;
#229 = PERSON_AND_ORGANIZATION_ROLE ( 'design_supplier' ) ;
#230 = VECTOR ( 'NONE', #64, 1000.000000000000200 ) ;
#231 = AXIS2_PLACEMENT_3D ( 'NONE', #190, #264, #207 ) ;
#232 = ORIENTED_EDGE ( 'NONE', *, *, #213, .T. ) ;
#233 = DIRECTION ( 'NONE',  ( 0.0000000000000000000, 0.0000000000000000000, -1.000000000000000000 ) ) ;
#234 = CC_DESIGN_DATE_AND_TIME_ASSIGNMENT ( #139, #168, ( #114 ) ) ;
#235 = SHAPE_DEFINITION_REPRESENTATION ( #51, #37 ) ;
#236 = CARTESIAN_POINT ( 'NONE',  ( 0.0000000000000000000, 2.263723431014624600, -0.8038553743508289900 ) ) ;
#237 = AXIS2_PLACEMENT_3D ( 'NONE', #189, #249, #174 ) ;
#238 = APPLICATION_CONTEXT ( 'configuration controlled 3d designs of mechanical parts and assemblies' ) ;
#239 = CARTESIAN_POINT ( 'NONE',  ( 0.0000000000000000000, 0.0000000000000000000, -0.8038553743508289900 ) ) ;
#240 = ORIENTED_EDGE ( 'NONE', *, *, #73, .F. ) ;
#241 = ORIENTED_EDGE ( 'NONE', *, *, #159, .T. ) ;
#242 = SECURITY_CLASSIFICATION_LEVEL ( 'unclassified' ) ;
#243 = VERTEX_POINT ( 'NONE', #257 ) ;
#244 = APPROVAL ( #250, 'UNSPECIFIED' ) ;
#245 = ORIENTED_EDGE ( 'NONE', *, *, #334, .T. ) ;
#246 = CC_DESIGN_DATE_AND_TIME_ASSIGNMENT ( #330, #44, ( #171 ) ) ;
#247 = ORIENTED_EDGE ( 'NONE', *, *, #213, .F. ) ;
#248 = CARTESIAN_POINT ( 'NONE',  ( 0.0000000000000000000, 0.0000000000000000000, 7.700000000000040100 ) ) ;
#249 = DIRECTION ( 'NONE',  ( 0.0000000000000000000, 0.0000000000000000000, -1.000000000000000000 ) ) ;
#250 = APPROVAL_STATUS ( 'not_yet_approved' ) ;
#251 = AXIS2_PLACEMENT_3D ( 'NONE', #248, #356, #196 ) ;
#252 = ORIENTED_EDGE ( 'NONE', *, *, #41, .F. ) ;
#253 = APPROVAL_ROLE ( '' ) ;
#254 = AXIS2_PLACEMENT_3D ( 'NONE', #318, #362, #68 ) ;
#255 = CIRCLE ( 'NONE', #254, 2.263723431014628600 ) ;
#256 = ORIENTED_EDGE ( 'NONE', *, *, #55, .F. ) ;
#257 = CARTESIAN_POINT ( 'NONE',  ( 2.263723431014620600, 0.0000000000000000000, -0.8038553743508289900 ) ) ;
#258 = CONICAL_SURFACE ( 'NONE', #325, 2.499999999999999600, 0.6413690947502933600 ) ;
#259 = DIRECTION ( 'NONE',  ( 1.000000000000000000, 0.0000000000000000000, 0.0000000000000000000 ) ) ;
#260 = LINE ( 'NONE', #288, #285 ) ;
#261 = EDGE_CURVE ( 'NONE', #137, #345, #133, .T. ) ;
#262 = ORIENTED_EDGE ( 'NONE', *, *, #298, .F. ) ;
#263 = AXIS2_PLACEMENT_3D ( 'NONE', #350, #273, #259 ) ;
#264 = DIRECTION ( 'NONE',  ( 1.000000000000000000, 0.0000000000000000000, 0.0000000000000000000 ) ) ;
#265 = CARTESIAN_POINT ( 'NONE',  ( 0.0000000000000000000, 0.0000000000000000000, -7.700000000000040100 ) ) ;
#266 = EDGE_CURVE ( 'NONE', #367, #9, #255, .T. ) ;
#267 = ORIENTED_EDGE ( 'NONE', *, *, #16, .T. ) ;
#268 = CARTESIAN_POINT ( 'NONE',  ( 0.0000000000000000000, 0.0000000000000000000, -7.700000000000040100 ) ) ;
#269 = EDGE_LOOP ( 'NONE', ( #45, #89, #294, #202, #256 ) ) ;
#270 = EDGE_CURVE ( 'NONE', #367, #278, #290, .T. ) ;
#271 = AXIS2_PLACEMENT_3D ( 'NONE', #138, #167, #309 ) ;
#272 = ADVANCED_FACE ( 'NONE', ( #8 ), #223, .T. ) ;
#273 = DIRECTION ( 'NONE',  ( 0.0000000000000000000, 0.0000000000000000000, -1.000000000000000000 ) ) ;
#274 = ORIENTED_EDGE ( 'NONE', *, *, #81, .F. ) ;
#275 = PERSON_AND_ORGANIZATION ( #19, #353 ) ;
#276 = CARTESIAN_POINT ( 'NONE',  ( 0.0000000000000000000, 0.0000000000000000000, 7.700000000000040100 ) ) ;
#277 = LINE ( 'NONE', #53, #230 ) ;
#278 = VERTEX_POINT ( 'NONE', #142 ) ;
#279 = PRODUCT ( '4306-E0W', '4306-E0W', '', ( #102 ) ) ;
#280 = PERSON_AND_ORGANIZATION_ROLE ( 'creator' ) ;
#281 = LOCAL_TIME ( 16, 42, 53.00000000000000000, #297 ) ;
#282 = PERSON_AND_ORGANIZATION_ROLE ( 'design_owner' ) ;
#283 = CC_DESIGN_PERSON_AND_ORGANIZATION_ASSIGNMENT ( #352, #106, ( #171 ) ) ;
#284 = DIRECTION ( 'NONE',  ( -1.000000000000000000, 0.0000000000000000000, 0.0000000000000000000 ) ) ;
#285 = VECTOR ( 'NONE', #338, 1000.000000000000000 ) ;
#286 = VERTEX_POINT ( 'NONE', #112 ) ;
#287 = AXIS2_PLACEMENT_3D ( 'NONE', #132, #224, #284 ) ;
#288 = CARTESIAN_POINT ( 'NONE',  ( -2.499999999999999600, 3.061616997868382600E-016, 1.100000000000000100 ) ) ;
#289 = LOCAL_TIME ( 16, 42, 53.00000000000000000, #50 ) ;
#290 = LINE ( 'NONE', #86, #354 ) ;
#291 = VERTEX_POINT ( 'NONE', #333 ) ;
#292 = CARTESIAN_POINT ( 'NONE',  ( 0.0000000000000000000, 5.388445916248381600E-016, -1.100000000000005400 ) ) ;
#293 = DIRECTION ( 'NONE',  ( 0.0000000000000000000, 1.000000000000000000, 0.0000000000000000000 ) ) ;
#294 = ORIENTED_EDGE ( 'NONE', *, *, #319, .F. ) ;
#295 = FACE_OUTER_BOUND ( 'NONE', #40, .T. ) ;
#296 = AXIS2_PLACEMENT_3D ( 'NONE', #128, #206, #143 ) ;
#297 = COORDINATED_UNIVERSAL_TIME_OFFSET ( 5, 0, .BEHIND. ) ;
#298 = EDGE_CURVE ( 'NONE', #108, #115, #92, .T. ) ;
#299 = AXIS2_PLACEMENT_3D ( 'NONE', #178, #49, #150 ) ;
#300 = CIRCLE ( 'NONE', #311, 2.263723431014620600 ) ;
#301 = DIRECTION ( 'NONE',  ( -1.000000000000000000, 1.224646799147353200E-016, 0.0000000000000000000 ) ) ;
#302 = AXIS2_PLACEMENT_3D ( 'NONE', #216, #233, #93 ) ;
#303 = PERSON_AND_ORGANIZATION ( #19, #353 ) ;
#304 = CARTESIAN_POINT ( 'NONE',  ( 0.0000000000000000000, 0.0000000000000000000, -0.4874166662551440200 ) ) ;
#305 = ADVANCED_FACE ( 'NONE', ( #347 ), #258, .T. ) ;
#306 = AXIS2_PLACEMENT_3D ( 'NONE', #157, #59, #358 ) ;
#307 = UNCERTAINTY_MEASURE_WITH_UNIT (LENGTH_MEASURE( 1.000000000000000100E-005 ), #61, 'distance_accuracy_value', 'NONE');
#308 = CARTESIAN_POINT ( 'NONE',  ( -2.499999999999999600, 3.061616997868382600E-016, -0.4874166662551440200 ) ) ;
#309 = DIRECTION ( 'NONE',  ( -1.000000000000000000, 0.0000000000000000000, 0.0000000000000000000 ) ) ;
#310 = CARTESIAN_POINT ( 'NONE',  ( 0.0000000000000000000, 0.0000000000000000000, -0.4874166662551440200 ) ) ;
#311 = AXIS2_PLACEMENT_3D ( 'NONE', #357, #6, #7 ) ;
#312 = APPLICATION_PROTOCOL_DEFINITION ( 'international standard', 'config_control_design', 1994, #238 ) ;
#313 = VECTOR ( 'NONE', #211, 1000.000000000000100 ) ;
#314 = CALENDAR_DATE ( 2015, 17, 6 ) ;
#315 = LOCAL_TIME ( 16, 42, 53.00000000000000000, #43 ) ;
#316 = DIRECTION ( 'NONE',  ( 0.5982930264130988900, 7.326976397489843700E-017, -0.8012773892638273000 ) ) ;
#317 = EDGE_CURVE ( 'NONE', #137, #332, #320, .T. ) ;
#318 = CARTESIAN_POINT ( 'NONE',  ( 0.0000000000000000000, 0.0000000000000000000, 0.8038553743508289900 ) ) ;
#319 = EDGE_CURVE ( 'NONE', #291, #278, #160, .T. ) ;
#320 = CIRCLE ( 'NONE', #14, 8.800000000000045100 ) ;
#321 = ORIENTED_EDGE ( 'NONE', *, *, #266, .T. ) ;
#322 = EDGE_LOOP ( 'NONE', ( #67, #240, #90, #267, #5 ) ) ;
#323 = ORIENTED_EDGE ( 'NONE', *, *, #124, .T. ) ;
#324 = DIRECTION ( 'NONE',  ( 0.0000000000000000000, 0.0000000000000000000, -1.000000000000000000 ) ) ;
#325 = AXIS2_PLACEMENT_3D ( 'NONE', #304, #359, #30 ) ;
#326 = CIRCLE ( 'NONE', #194, 8.800000000000045100 ) ;
#327 = DIRECTION ( 'NONE',  ( -1.000000000000000000, 1.224646799147353200E-016, 0.0000000000000000000 ) ) ;
#328 = ORIENTED_EDGE ( 'NONE', *, *, #270, .F. ) ;
#329 = EDGE_LOOP ( 'NONE', ( #222, #227, #52, #165 ) ) ;
#330 = DATE_AND_TIME ( #119, #141 ) ;
#331 = CC_DESIGN_SECURITY_CLASSIFICATION ( #114, ( #60 ) ) ;
#332 = VERTEX_POINT ( 'NONE', #197 ) ;
#333 = CARTESIAN_POINT ( 'NONE',  ( -2.499999999999999600, 3.061616997868382600E-016, 0.4874166662551544000 ) ) ;
#334 = EDGE_CURVE ( 'NONE', #286, #221, #126, .T. ) ;
#335 = SPHERICAL_SURFACE ( 'NONE', #306, 8.800000000000045100 ) ;
#336 = COORDINATED_UNIVERSAL_TIME_OFFSET ( 5, 0, .BEHIND. ) ;
#337 = DIRECTION ( 'NONE',  ( 1.000000000000000000, 0.0000000000000000000, 0.0000000000000000000 ) ) ;
#338 = DIRECTION ( 'NONE',  ( -0.0000000000000000000, -0.0000000000000000000, 1.000000000000000000 ) ) ;
#339 = APPROVAL ( #172, 'UNSPECIFIED' ) ;
#340 = DIRECTION ( 'NONE',  ( 0.0000000000000000000, 0.0000000000000000000, -1.000000000000000000 ) ) ;
#341 = ADVANCED_FACE ( 'NONE', ( #295 ), #122, .T. ) ;
#342 = CARTESIAN_POINT ( 'NONE',  ( 0.0000000000000000000, 0.0000000000000000000, 1.100000000000000100 ) ) ;
#343 = CALENDAR_DATE ( 2015, 17, 6 ) ;
#344 = ORIENTED_EDGE ( 'NONE', *, *, #81, .T. ) ;
#345 = VERTEX_POINT ( 'NONE', #236 ) ;
#346 = APPROVAL_PERSON_ORGANIZATION ( #22, #339, #351 ) ;
#347 = FACE_OUTER_BOUND ( 'NONE', #322, .T. ) ;
#348 = SPHERICAL_SURFACE ( 'NONE', #225, 8.800000000000045100 ) ;
#349 = DIRECTION ( 'NONE',  ( 1.000000000000000000, 0.0000000000000000000, 0.0000000000000000000 ) ) ;
#350 = CARTESIAN_POINT ( 'NONE',  ( 0.0000000000000000000, 0.0000000000000000000, -0.8038553743508289900 ) ) ;
#351 = APPROVAL_ROLE ( '' ) ;
#352 = PERSON_AND_ORGANIZATION ( #19, #353 ) ;
#353 = ORGANIZATION ( 'UNSPECIFIED', 'UNSPECIFIED', '' ) ;
#354 = VECTOR ( 'NONE', #316, 1000.000000000000200 ) ;
#355 = ORIENTED_EDGE ( 'NONE', *, *, #65, .F. ) ;
#356 = DIRECTION ( 'NONE',  ( -1.000000000000000000, 0.0000000000000000000, 0.0000000000000000000 ) ) ;
#357 = CARTESIAN_POINT ( 'NONE',  ( 0.0000000000000000000, 0.0000000000000000000, -0.8038553743508289900 ) ) ;
#358 = DIRECTION ( 'NONE',  ( 0.0000000000000000000, 1.000000000000000000, 0.0000000000000000000 ) ) ;
#359 = DIRECTION ( 'NONE',  ( -0.0000000000000000000, -0.0000000000000000000, 1.000000000000000000 ) ) ;
#360 = DIRECTION ( 'NONE',  ( 0.0000000000000000000, 0.0000000000000000000, -1.000000000000000000 ) ) ;
#361 = VECTOR ( 'NONE', #36, 1000.000000000000100 ) ;
#362 = DIRECTION ( 'NONE',  ( -0.0000000000000000000, -0.0000000000000000000, 1.000000000000000000 ) ) ;
#363 = CARTESIAN_POINT ( 'NONE',  ( 0.0000000000000000000, 0.0000000000000000000, 0.8038553743508289900 ) ) ;
#364 = EDGE_CURVE ( 'NONE', #278, #291, #3, .T. ) ;
#365 = DIRECTION ( 'NONE',  ( -1.224646799147353200E-016, -1.000000000000000000, 0.0000000000000000000 ) ) ;
#366 = SPHERICAL_SURFACE ( 'NONE', #251, 8.800000000000045100 ) ;
#367 = VERTEX_POINT ( 'NONE', #98 ) ;
ENDSEC;
END-ISO-10303-21;
