ISO-10303-21;
HEADER;
FILE_DESCRIPTION (( 'STEP AP203' ),
    '1' );
FILE_NAME ('Web Model 37117MX_37122.step',
    '2017-10-30T12:46:34',
    ( '' ),
    ( '' ),
    'SwSTEP 2.0',
    'SolidWorks 2016',
    '' );
FILE_SCHEMA (( 'CONFIG_CONTROL_DESIGN' ));
ENDSEC;

DATA;
#1 = SHAPE_DEFINITION_REPRESENTATION ( #190, #207 ) ;
#2 = DIRECTION ( 'NONE',  ( 1.000000000000000000, 1.387778780781445700E-016, 0.0000000000000000000 ) ) ;
#3 = APPLICATION_CONTEXT ( 'configuration controlled 3d designs of mechanical parts and assemblies' ) ;
#4 = DATE_AND_TIME ( #211, #91 ) ;
#5 = DATE_AND_TIME ( #189, #16 ) ;
#6 = SECURITY_CLASSIFICATION_LEVEL ( 'unclassified' ) ;
#7 = EDGE_CURVE ( 'NONE', #161, #193, #11, .T. ) ;
#8 = CARTESIAN_POINT ( 'NONE',  ( -6.250000000000000000, 6.250000000000000000, 3.000000000000000000 ) ) ;
#9 = LOCAL_TIME ( 8, 46, 34.00000000000000000, #186 ) ;
#10 = CC_DESIGN_PERSON_AND_ORGANIZATION_ASSIGNMENT ( #151, #203, ( #29 ) ) ;
#11 = LINE ( 'NONE', #197, #98 ) ;
#12 = LINE ( 'NONE', #36, #70 ) ;
#13 = LINE ( 'NONE', #95, #229 ) ;
#14 = DATE_AND_TIME ( #18, #217 ) ;
#15 = VERTEX_POINT ( 'NONE', #17 ) ;
#16 = LOCAL_TIME ( 8, 46, 34.00000000000000000, #41 ) ;
#17 = CARTESIAN_POINT ( 'NONE',  ( 6.249999999999998200, 6.250000000000001800, 3.000000000000000000 ) ) ;
#18 = CALENDAR_DATE ( 2017, 30, 10 ) ;
#19 = EDGE_CURVE ( 'NONE', #148, #92, #45, .T. ) ;
#20 = DIRECTION ( 'NONE',  ( 0.0000000000000000000, -0.0000000000000000000, 1.000000000000000000 ) ) ;
#21 = LINE ( 'NONE', #162, #101 ) ;
#22 = DIRECTION ( 'NONE',  ( 1.000000000000000000, 0.0000000000000000000, -0.0000000000000000000 ) ) ;
#23 =( NAMED_UNIT ( * ) PLANE_ANGLE_UNIT ( ) SI_UNIT ( $, .RADIAN. ) );
#24 = ORIENTED_EDGE ( 'NONE', *, *, #68, .T. ) ;
#25 = APPROVAL_ROLE ( '' ) ;
#26 = APPROVAL_PERSON_ORGANIZATION ( #94, #86, #25 ) ;
#27 = APPLICATION_PROTOCOL_DEFINITION ( 'international standard', 'config_control_design', 1994, #134 ) ;
#28 = ORIENTED_EDGE ( 'NONE', *, *, #105, .F. ) ;
#29 = PRODUCT_DEFINITION ( 'UNKNOWN', '', #85, #103 ) ;
#30 = ORIENTED_EDGE ( 'NONE', *, *, #219, .T. ) ;
#31 = DATE_AND_TIME ( #146, #9 ) ;
#32 = DIRECTION ( 'NONE',  ( 1.000000000000000000, 1.387778780781445900E-016, -0.0000000000000000000 ) ) ;
#33 = PERSON_AND_ORGANIZATION ( #172, #159 ) ;
#34 = ORIENTED_EDGE ( 'NONE', *, *, #102, .T. ) ;
#35 = AXIS2_PLACEMENT_3D ( 'NONE', #176, #42, #183 ) ;
#36 = CARTESIAN_POINT ( 'NONE',  ( 6.249999999999998200, -6.249999999999998200, -3.000000000000000000 ) ) ;
#37 = CARTESIAN_POINT ( 'NONE',  ( -6.250000000000000000, 6.250000000000000000, -3.000000000000000000 ) ) ;
#38 =( NAMED_UNIT ( * ) SI_UNIT ( $, .STERADIAN. ) SOLID_ANGLE_UNIT ( ) );
#39 = ORIENTED_EDGE ( 'NONE', *, *, #237, .F. ) ;
#40 = PLANE ( 'NONE',  #121 ) ;
#41 = COORDINATED_UNIVERSAL_TIME_OFFSET ( 5, 0, .BEHIND. ) ;
#42 = DIRECTION ( 'NONE',  ( 0.0000000000000000000, -0.0000000000000000000, 1.000000000000000000 ) ) ;
#43 = PERSON_AND_ORGANIZATION_ROLE ( 'design_owner' ) ;
#44 = AXIS2_PLACEMENT_3D ( 'NONE', #118, #147, #2 ) ;
#45 = LINE ( 'NONE', #126, #128 ) ;
#46 = APPROVAL ( #127, 'UNSPECIFIED' ) ;
#47 = VECTOR ( 'NONE', #139, 1000.000000000000000 ) ;
#48 = PRODUCT ( 'Web Model 37117MX_37122', 'Web Model 37117MX_37122', '', ( #82 ) ) ;
#49 = LINE ( 'NONE', #60, #88 ) ;
#50 = CC_DESIGN_APPROVAL ( #227, ( #85 ) ) ;
#51 = ORIENTED_EDGE ( 'NONE', *, *, #7, .F. ) ;
#52 = ORIENTED_EDGE ( 'NONE', *, *, #72, .T. ) ;
#53 = DIRECTION ( 'NONE',  ( -1.000000000000000000, 0.0000000000000000000, 0.0000000000000000000 ) ) ;
#54 = LINE ( 'NONE', #174, #141 ) ;
#55 = ORIENTED_EDGE ( 'NONE', *, *, #167, .F. ) ;
#56 = EDGE_LOOP ( 'NONE', ( #209, #28, #178, #51 ) ) ;
#57 = CARTESIAN_POINT ( 'NONE',  ( 6.249999999999998200, -6.249999999999998200, 3.000000000000000000 ) ) ;
#58 = CARTESIAN_POINT ( 'NONE',  ( 6.249999999999998200, -6.249999999999998200, -3.000000000000000000 ) ) ;
#59 = CC_DESIGN_DATE_AND_TIME_ASSIGNMENT ( #5, #222, ( #29 ) ) ;
#60 = CARTESIAN_POINT ( 'NONE',  ( -6.250000000000000000, -6.250000000000000000, 3.000000000000000000 ) ) ;
#61 = FACE_OUTER_BOUND ( 'NONE', #106, .T. ) ;
#62 = DIRECTION ( 'NONE',  ( 0.0000000000000000000, 0.0000000000000000000, 1.000000000000000000 ) ) ;
#63 = AXIS2_PLACEMENT_3D ( 'NONE', #177, #53, #140 ) ;
#64 = DIRECTION ( 'NONE',  ( 1.000000000000000000, 0.0000000000000000000, 0.0000000000000000000 ) ) ;
#65 = CARTESIAN_POINT ( 'NONE',  ( 6.249999999999998200, 6.250000000000001800, -3.000000000000000000 ) ) ;
#66 = APPROVAL_PERSON_ORGANIZATION ( #33, #46, #202 ) ;
#67 = LINE ( 'NONE', #143, #84 ) ;
#68 = EDGE_CURVE ( 'NONE', #92, #193, #67, .T. ) ;
#69 = ORIENTED_EDGE ( 'NONE', *, *, #102, .F. ) ;
#70 = VECTOR ( 'NONE', #75, 1000.000000000000000 ) ;
#71 = ORIENTED_EDGE ( 'NONE', *, *, #167, .T. ) ;
#72 = EDGE_CURVE ( 'NONE', #193, #228, #12, .T. ) ;
#73 = PERSON_AND_ORGANIZATION ( #172, #159 ) ;
#74 = ORIENTED_EDGE ( 'NONE', *, *, #213, .F. ) ;
#75 = DIRECTION ( 'NONE',  ( 0.0000000000000000000, 1.000000000000000000, 0.0000000000000000000 ) ) ;
#76 = FACE_OUTER_BOUND ( 'NONE', #104, .T. ) ;
#77 = CARTESIAN_POINT ( 'NONE',  ( 6.249999999999998200, -6.249999999999998200, 3.000000000000000000 ) ) ;
#78 = CC_DESIGN_PERSON_AND_ORGANIZATION_ASSIGNMENT ( #113, #145, ( #85 ) ) ;
#79 = DIRECTION ( 'NONE',  ( -1.387778780781445700E-016, 1.000000000000000000, 0.0000000000000000000 ) ) ;
#80 = PERSON_AND_ORGANIZATION_ROLE ( 'classification_officer' ) ;
#81 = UNCERTAINTY_MEASURE_WITH_UNIT (LENGTH_MEASURE( 1.000000000000000100E-005 ), #221, 'distance_accuracy_value', 'NONE');
#82 = MECHANICAL_CONTEXT ( 'NONE', #3, 'mechanical' ) ;
#83 = PLANE ( 'NONE',  #44 ) ;
#84 = VECTOR ( 'NONE', #235, 1000.000000000000000 ) ;
#85 = PRODUCT_DEFINITION_FORMATION_WITH_SPECIFIED_SOURCE ( 'ANY', '', #48, .NOT_KNOWN. ) ;
#86 = APPROVAL ( #199, 'UNSPECIFIED' ) ;
#87 = EDGE_LOOP ( 'NONE', ( #230, #142, #34, #152 ) ) ;
#88 = VECTOR ( 'NONE', #168, 1000.000000000000000 ) ;
#89 = ORIENTED_EDGE ( 'NONE', *, *, #219, .F. ) ;
#90 = SECURITY_CLASSIFICATION ( '', '', #6 ) ;
#91 = LOCAL_TIME ( 8, 46, 34.00000000000000000, #185 ) ;
#92 = VERTEX_POINT ( 'NONE', #57 ) ;
#93 = DIRECTION ( 'NONE',  ( -0.0000000000000000000, -1.000000000000000000, -0.0000000000000000000 ) ) ;
#94 = PERSON_AND_ORGANIZATION ( #172, #159 ) ;
#95 = CARTESIAN_POINT ( 'NONE',  ( -6.250000000000000000, -6.250000000000000000, -3.000000000000000000 ) ) ;
#96 = DIRECTION ( 'NONE',  ( 1.000000000000000000, 0.0000000000000000000, 0.0000000000000000000 ) ) ;
#97 = PLANE ( 'NONE',  #114 ) ;
#98 = VECTOR ( 'NONE', #32, 1000.000000000000000 ) ;
#99 = APPROVAL_DATE_TIME ( #14, #227 ) ;
#100 = CARTESIAN_POINT ( 'NONE',  ( 0.0000000000000000000, 0.0000000000000000000, -3.000000000000000000 ) ) ;
#101 = VECTOR ( 'NONE', #198, 1000.000000000000000 ) ;
#102 = EDGE_CURVE ( 'NONE', #92, #15, #122, .T. ) ;
#103 = DESIGN_CONTEXT ( 'detailed design', #134, 'design' ) ;
#104 = EDGE_LOOP ( 'NONE', ( #52, #225, #69, #24 ) ) ;
#105 = EDGE_CURVE ( 'NONE', #228, #120, #21, .T. ) ;
#106 = EDGE_LOOP ( 'NONE', ( #231, #89, #39, #173 ) ) ;
#107 = CALENDAR_DATE ( 2017, 30, 10 ) ;
#108 = VERTEX_POINT ( 'NONE', #138 ) ;
#109 = LINE ( 'NONE', #8, #212 ) ;
#110 = ADVANCED_FACE ( 'NONE', ( #76 ), #157, .F. ) ;
#111 = CARTESIAN_POINT ( 'NONE',  ( -6.250000000000000000, -6.250000000000000000, 3.000000000000000000 ) ) ;
#112 = CARTESIAN_POINT ( 'NONE',  ( 6.249999999999998200, -6.249999999999998200, 3.000000000000000000 ) ) ;
#113 = PERSON_AND_ORGANIZATION ( #172, #159 ) ;
#114 = AXIS2_PLACEMENT_3D ( 'NONE', #100, #20, #22 ) ;
#115 = DIRECTION ( 'NONE',  ( 0.0000000000000000000, 0.0000000000000000000, -1.000000000000000000 ) ) ;
#116 = ADVANCED_FACE ( 'NONE', ( #119 ), #125, .F. ) ;
#117 = PERSON_AND_ORGANIZATION_ROLE ( 'design_supplier' ) ;
#118 = CARTESIAN_POINT ( 'NONE',  ( 6.249999999999998200, 6.250000000000001800, 3.000000000000000000 ) ) ;
#119 = FACE_OUTER_BOUND ( 'NONE', #210, .T. ) ;
#120 = VERTEX_POINT ( 'NONE', #37 ) ;
#121 = AXIS2_PLACEMENT_3D ( 'NONE', #130, #96, #115 ) ;
#122 = LINE ( 'NONE', #77, #47 ) ;
#123 = AXIS2_PLACEMENT_3D ( 'NONE', #112, #79, #218 ) ;
#124 = CARTESIAN_POINT ( 'NONE',  ( -6.250000000000000000, -6.250000000000000000, -3.000000000000000000 ) ) ;
#125 = PLANE ( 'NONE',  #123 ) ;
#126 = CARTESIAN_POINT ( 'NONE',  ( 6.249999999999998200, -6.249999999999998200, 3.000000000000000000 ) ) ;
#127 = APPROVAL_STATUS ( 'not_yet_approved' ) ;
#128 = VECTOR ( 'NONE', #158, 1000.000000000000000 ) ;
#129 = CARTESIAN_POINT ( 'NONE',  ( 0.0000000000000000000, 0.0000000000000000000, 0.0000000000000000000 ) ) ;
#130 = CARTESIAN_POINT ( 'NONE',  ( -6.250000000000000000, -6.250000000000000000, 3.000000000000000000 ) ) ;
#131 = EDGE_CURVE ( 'NONE', #120, #161, #13, .T. ) ;
#132 = DATE_AND_TIME ( #107, #182 ) ;
#133 = DATE_TIME_ROLE ( 'classification_date' ) ;
#134 = APPLICATION_CONTEXT ( 'configuration controlled 3d designs of mechanical parts and assemblies' ) ;
#135 = COORDINATED_UNIVERSAL_TIME_OFFSET ( 5, 0, .BEHIND. ) ;
#136 = APPROVAL_DATE_TIME ( #4, #86 ) ;
#137 = APPROVAL_PERSON_ORGANIZATION ( #201, #227, #149 ) ;
#138 = CARTESIAN_POINT ( 'NONE',  ( -6.250000000000000000, 6.250000000000000000, 3.000000000000000000 ) ) ;
#139 = DIRECTION ( 'NONE',  ( 0.0000000000000000000, 1.000000000000000000, 0.0000000000000000000 ) ) ;
#140 = DIRECTION ( 'NONE',  ( 0.0000000000000000000, 0.0000000000000000000, 1.000000000000000000 ) ) ;
#141 = VECTOR ( 'NONE', #216, 1000.000000000000000 ) ;
#142 = ORIENTED_EDGE ( 'NONE', *, *, #19, .T. ) ;
#143 = CARTESIAN_POINT ( 'NONE',  ( 6.249999999999998200, -6.249999999999998200, 3.000000000000000000 ) ) ;
#144 = CC_DESIGN_DATE_AND_TIME_ASSIGNMENT ( #132, #133, ( #90 ) ) ;
#145 = PERSON_AND_ORGANIZATION_ROLE ( 'creator' ) ;
#146 = CALENDAR_DATE ( 2017, 30, 10 ) ;
#147 = DIRECTION ( 'NONE',  ( 1.387778780781445700E-016, -1.000000000000000000, 0.0000000000000000000 ) ) ;
#148 = VERTEX_POINT ( 'NONE', #111 ) ;
#149 = APPROVAL_ROLE ( '' ) ;
#150 = VECTOR ( 'NONE', #180, 1000.000000000000000 ) ;
#151 = PERSON_AND_ORGANIZATION ( #172, #159 ) ;
#152 = ORIENTED_EDGE ( 'NONE', *, *, #237, .T. ) ;
#153 = EDGE_CURVE ( 'NONE', #15, #228, #54, .T. ) ;
#154 = PERSON_AND_ORGANIZATION ( #172, #159 ) ;
#155 = MANIFOLD_SOLID_BREP ( 'Boss-Extrude1', #196 ) ;
#156 = ADVANCED_FACE ( 'NONE', ( #215 ), #234, .T. ) ;
#157 = PLANE ( 'NONE',  #63 ) ;
#158 = DIRECTION ( 'NONE',  ( 1.000000000000000000, 1.387778780781445900E-016, -0.0000000000000000000 ) ) ;
#159 = ORGANIZATION ( 'UNSPECIFIED', 'UNSPECIFIED', '' ) ;
#160 = CC_DESIGN_SECURITY_CLASSIFICATION ( #90, ( #85 ) ) ;
#161 = VERTEX_POINT ( 'NONE', #124 ) ;
#162 = CARTESIAN_POINT ( 'NONE',  ( 6.249999999999998200, 6.250000000000001800, -3.000000000000000000 ) ) ;
#163 = FACE_OUTER_BOUND ( 'NONE', #170, .T. ) ;
#164 = DIRECTION ( 'NONE',  ( -0.0000000000000000000, -0.0000000000000000000, -1.000000000000000000 ) ) ;
#165 = ORIENTED_EDGE ( 'NONE', *, *, #7, .T. ) ;
#166 = CARTESIAN_POINT ( 'NONE',  ( -6.250000000000000000, -6.250000000000000000, 3.000000000000000000 ) ) ;
#167 = EDGE_CURVE ( 'NONE', #148, #161, #49, .T. ) ;
#168 = DIRECTION ( 'NONE',  ( -0.0000000000000000000, -0.0000000000000000000, -1.000000000000000000 ) ) ;
#169 = LINE ( 'NONE', #166, #150 ) ;
#170 = EDGE_LOOP ( 'NONE', ( #188, #55, #74, #30 ) ) ;
#171 = APPROVAL_DATE_TIME ( #31, #46 ) ;
#172 = PERSON ( 'UNSPECIFIED', 'UNSPECIFIED', 'UNSPECIFIED', ('UNSPECIFIED'), ('UNSPECIFIED'), ('UNSPECIFIED') ) ;
#173 = ORIENTED_EDGE ( 'NONE', *, *, #153, .T. ) ;
#174 = CARTESIAN_POINT ( 'NONE',  ( 6.249999999999998200, 6.250000000000001800, 3.000000000000000000 ) ) ;
#175 = ADVANCED_FACE ( 'NONE', ( #163 ), #40, .F. ) ;
#176 = CARTESIAN_POINT ( 'NONE',  ( 0.0000000000000000000, 0.0000000000000000000, 3.000000000000000000 ) ) ;
#177 = CARTESIAN_POINT ( 'NONE',  ( 6.249999999999998200, -6.249999999999998200, 3.000000000000000000 ) ) ;
#178 = ORIENTED_EDGE ( 'NONE', *, *, #72, .F. ) ;
#179 = CC_DESIGN_PERSON_AND_ORGANIZATION_ASSIGNMENT ( #154, #43, ( #48 ) ) ;
#180 = DIRECTION ( 'NONE',  ( -0.0000000000000000000, -1.000000000000000000, -0.0000000000000000000 ) ) ;
#181 = APPLICATION_PROTOCOL_DEFINITION ( 'international standard', 'config_control_design', 1994, #3 ) ;
#182 = LOCAL_TIME ( 8, 46, 34.00000000000000000, #233 ) ;
#183 = DIRECTION ( 'NONE',  ( 1.000000000000000000, 0.0000000000000000000, -0.0000000000000000000 ) ) ;
#184 =( GEOMETRIC_REPRESENTATION_CONTEXT ( 3 ) GLOBAL_UNCERTAINTY_ASSIGNED_CONTEXT ( ( #81 ) ) GLOBAL_UNIT_ASSIGNED_CONTEXT ( ( #221, #23, #38 ) ) REPRESENTATION_CONTEXT ( 'NONE', 'WORKASPACE' ) );
#185 = COORDINATED_UNIVERSAL_TIME_OFFSET ( 5, 0, .BEHIND. ) ;
#186 = COORDINATED_UNIVERSAL_TIME_OFFSET ( 5, 0, .BEHIND. ) ;
#187 = CC_DESIGN_PERSON_AND_ORGANIZATION_ASSIGNMENT ( #73, #117, ( #85 ) ) ;
#188 = ORIENTED_EDGE ( 'NONE', *, *, #131, .T. ) ;
#189 = CALENDAR_DATE ( 2017, 30, 10 ) ;
#190 = PRODUCT_DEFINITION_SHAPE ( 'NONE', 'NONE',  #29 ) ;
#191 = PRODUCT_RELATED_PRODUCT_CATEGORY ( 'detail', '', ( #48 ) ) ;
#192 = LINE ( 'NONE', #200, #206 ) ;
#193 = VERTEX_POINT ( 'NONE', #58 ) ;
#194 = CC_DESIGN_APPROVAL ( #46, ( #29 ) ) ;
#195 = PERSON_AND_ORGANIZATION ( #172, #159 ) ;
#196 = CLOSED_SHELL ( 'NONE', ( #175, #116, #110, #214, #156, #220 ) ) ;
#197 = CARTESIAN_POINT ( 'NONE',  ( 6.249999999999998200, -6.249999999999998200, -3.000000000000000000 ) ) ;
#198 = DIRECTION ( 'NONE',  ( -1.000000000000000000, -1.387778780781445900E-016, 0.0000000000000000000 ) ) ;
#199 = APPROVAL_STATUS ( 'not_yet_approved' ) ;
#200 = CARTESIAN_POINT ( 'NONE',  ( 6.249999999999998200, 6.250000000000001800, 3.000000000000000000 ) ) ;
#201 = PERSON_AND_ORGANIZATION ( #172, #159 ) ;
#202 = APPROVAL_ROLE ( '' ) ;
#203 = PERSON_AND_ORGANIZATION_ROLE ( 'creator' ) ;
#204 = CC_DESIGN_PERSON_AND_ORGANIZATION_ASSIGNMENT ( #195, #80, ( #90 ) ) ;
#205 = DIRECTION ( 'NONE',  ( -1.000000000000000000, -1.387778780781445900E-016, 0.0000000000000000000 ) ) ;
#206 = VECTOR ( 'NONE', #205, 1000.000000000000000 ) ;
#207 = ADVANCED_BREP_SHAPE_REPRESENTATION ( 'Web Model 37117MX_37122', ( #155, #208 ), #184 ) ;
#208 = AXIS2_PLACEMENT_3D ( 'NONE', #129, #62, #64 ) ;
#209 = ORIENTED_EDGE ( 'NONE', *, *, #131, .F. ) ;
#210 = EDGE_LOOP ( 'NONE', ( #165, #226, #236, #71 ) ) ;
#211 = CALENDAR_DATE ( 2017, 30, 10 ) ;
#212 = VECTOR ( 'NONE', #164, 1000.000000000000000 ) ;
#213 = EDGE_CURVE ( 'NONE', #108, #148, #169, .T. ) ;
#214 = ADVANCED_FACE ( 'NONE', ( #61 ), #83, .F. ) ;
#215 = FACE_OUTER_BOUND ( 'NONE', #87, .T. ) ;
#216 = DIRECTION ( 'NONE',  ( -0.0000000000000000000, -0.0000000000000000000, -1.000000000000000000 ) ) ;
#217 = LOCAL_TIME ( 8, 46, 34.00000000000000000, #135 ) ;
#218 = DIRECTION ( 'NONE',  ( -1.000000000000000000, -1.387778780781445700E-016, 0.0000000000000000000 ) ) ;
#219 = EDGE_CURVE ( 'NONE', #108, #120, #109, .T. ) ;
#220 = ADVANCED_FACE ( 'NONE', ( #224 ), #97, .F. ) ;
#221 =( LENGTH_UNIT ( ) NAMED_UNIT ( * ) SI_UNIT ( .MILLI., .METRE. ) );
#222 = DATE_TIME_ROLE ( 'creation_date' ) ;
#223 = APPROVAL_STATUS ( 'not_yet_approved' ) ;
#224 = FACE_OUTER_BOUND ( 'NONE', #56, .T. ) ;
#225 = ORIENTED_EDGE ( 'NONE', *, *, #153, .F. ) ;
#226 = ORIENTED_EDGE ( 'NONE', *, *, #68, .F. ) ;
#227 = APPROVAL ( #223, 'UNSPECIFIED' ) ;
#228 = VERTEX_POINT ( 'NONE', #65 ) ;
#229 = VECTOR ( 'NONE', #93, 1000.000000000000000 ) ;
#230 = ORIENTED_EDGE ( 'NONE', *, *, #213, .T. ) ;
#231 = ORIENTED_EDGE ( 'NONE', *, *, #105, .T. ) ;
#232 = CC_DESIGN_APPROVAL ( #86, ( #90 ) ) ;
#233 = COORDINATED_UNIVERSAL_TIME_OFFSET ( 5, 0, .BEHIND. ) ;
#234 = PLANE ( 'NONE',  #35 ) ;
#235 = DIRECTION ( 'NONE',  ( -0.0000000000000000000, -0.0000000000000000000, -1.000000000000000000 ) ) ;
#236 = ORIENTED_EDGE ( 'NONE', *, *, #19, .F. ) ;
#237 = EDGE_CURVE ( 'NONE', #15, #108, #192, .T. ) ;
ENDSEC;
END-ISO-10303-21;
