ISO-10303-21;
HEADER;
FILE_DESCRIPTION (( 'STEP AP203' ),
    '1' );
FILE_NAME ('Web Model 43925_43926.step',
    '2017-04-24T19:33:52',
    ( '' ),
    ( '' ),
    'SwSTEP 2.0',
    'SolidWorks 2016',
    '' );
FILE_SCHEMA (( 'CONFIG_CONTROL_DESIGN' ));
ENDSEC;

DATA;
#1 =( NAMED_UNIT ( * ) SI_UNIT ( $, .STERADIAN. ) SOLID_ANGLE_UNIT ( ) );
#2 = PERSON_AND_ORGANIZATION_ROLE ( 'creator' ) ;
#3 = VERTEX_POINT ( 'NONE', #17 ) ;
#4 = CC_DESIGN_APPROVAL ( #21, ( #119 ) ) ;
#5 = DIRECTION ( 'NONE',  ( -1.000000000000000000, 0.0000000000000000000, 0.0000000000000000000 ) ) ;
#6 = DIRECTION ( 'NONE',  ( 0.0000000000000000000, 0.0000000000000000000, 1.000000000000000000 ) ) ;
#7 = PERSON_AND_ORGANIZATION ( #114, #75 ) ;
#8 = ADVANCED_FACE ( 'NONE', ( #137 ), #97, .F. ) ;
#9 = ORIENTED_EDGE ( 'NONE', *, *, #99, .T. ) ;
#10 = CC_DESIGN_DATE_AND_TIME_ASSIGNMENT ( #165, #92, ( #89 ) ) ;
#11 = APPLICATION_PROTOCOL_DEFINITION ( 'international standard', 'config_control_design', 1994, #26 ) ;
#12 = APPROVAL_STATUS ( 'not_yet_approved' ) ;
#13 = CALENDAR_DATE ( 2017, 24, 4 ) ;
#14 = ORIENTED_EDGE ( 'NONE', *, *, #171, .T. ) ;
#15 = DIRECTION ( 'NONE',  ( 1.000000000000000000, 0.0000000000000000000, 0.0000000000000000000 ) ) ;
#16 = LOCAL_TIME ( 15, 33, 52.00000000000000000, #81 ) ;
#17 = CARTESIAN_POINT ( 'NONE',  ( 69.84999999999999400, 8.554157892044261800E-015, 0.7500000000000000000 ) ) ;
#18 = DIRECTION ( 'NONE',  ( -0.0000000000000000000, -0.0000000000000000000, -1.000000000000000000 ) ) ;
#19 = CYLINDRICAL_SURFACE ( 'NONE', #44, 69.84999999999999400 ) ;
#20 = ADVANCED_FACE ( 'NONE', ( #53 ), #19, .T. ) ;
#21 = APPROVAL ( #146, 'UNSPECIFIED' ) ;
#22 = ORIENTED_EDGE ( 'NONE', *, *, #134, .F. ) ;
#23 = APPROVAL ( #163, 'UNSPECIFIED' ) ;
#24 = CIRCLE ( 'NONE', #95, 69.84999999999999400 ) ;
#25 = DIRECTION ( 'NONE',  ( 0.0000000000000000000, 0.0000000000000000000, 1.000000000000000000 ) ) ;
#26 = APPLICATION_CONTEXT ( 'configuration controlled 3d designs of mechanical parts and assemblies' ) ;
#27 = PERSON_AND_ORGANIZATION_ROLE ( 'creator' ) ;
#28 = COORDINATED_UNIVERSAL_TIME_OFFSET ( 5, 0, .BEHIND. ) ;
#29 = EDGE_CURVE ( 'NONE', #45, #110, #40, .T. ) ;
#30 = CC_DESIGN_PERSON_AND_ORGANIZATION_ASSIGNMENT ( #100, #115, ( #48 ) ) ;
#31 = PERSON_AND_ORGANIZATION ( #114, #75 ) ;
#32 = CARTESIAN_POINT ( 'NONE',  ( 69.84999999999999400, 8.554157892044261800E-015, 0.7500000000000000000 ) ) ;
#33 = CC_DESIGN_PERSON_AND_ORGANIZATION_ASSIGNMENT ( #7, #52, ( #131 ) ) ;
#34 = DIRECTION ( 'NONE',  ( 0.0000000000000000000, 0.0000000000000000000, 1.000000000000000000 ) ) ;
#35 = AXIS2_PLACEMENT_3D ( 'NONE', #74, #34, #138 ) ;
#36 = APPROVAL_PERSON_ORGANIZATION ( #150, #23, #80 ) ;
#37 = COORDINATED_UNIVERSAL_TIME_OFFSET ( 5, 0, .BEHIND. ) ;
#38 = DIRECTION ( 'NONE',  ( 1.000000000000000000, 0.0000000000000000000, 0.0000000000000000000 ) ) ;
#39 = SECURITY_CLASSIFICATION_LEVEL ( 'unclassified' ) ;
#40 = CIRCLE ( 'NONE', #151, 69.84999999999999400 ) ;
#41 = AXIS2_PLACEMENT_3D ( 'NONE', #64, #113, #38 ) ;
#42 = CARTESIAN_POINT ( 'NONE',  ( 0.0000000000000000000, 0.0000000000000000000, 0.7500000000000000000 ) ) ;
#43 = DATE_AND_TIME ( #139, #47 ) ;
#44 = AXIS2_PLACEMENT_3D ( 'NONE', #135, #123, #173 ) ;
#45 = VERTEX_POINT ( 'NONE', #46 ) ;
#46 = CARTESIAN_POINT ( 'NONE',  ( -69.84999999999999400, 0.0000000000000000000, -0.7500000000000000000 ) ) ;
#47 = LOCAL_TIME ( 15, 33, 52.00000000000000000, #37 ) ;
#48 = PRODUCT_DEFINITION_FORMATION_WITH_SPECIFIED_SOURCE ( 'ANY', '', #131, .NOT_KNOWN. ) ;
#49 = ORIENTED_EDGE ( 'NONE', *, *, #155, .F. ) ;
#50 = LINE ( 'NONE', #32, #170 ) ;
#51 = CARTESIAN_POINT ( 'NONE',  ( 0.0000000000000000000, 0.0000000000000000000, -0.7500000000000000000 ) ) ;
#52 = PERSON_AND_ORGANIZATION_ROLE ( 'design_owner' ) ;
#53 = FACE_OUTER_BOUND ( 'NONE', #152, .T. ) ;
#54 = CALENDAR_DATE ( 2017, 24, 4 ) ;
#55 = DATE_TIME_ROLE ( 'classification_date' ) ;
#56 = LOCAL_TIME ( 15, 33, 52.00000000000000000, #90 ) ;
#57 = VECTOR ( 'NONE', #156, 1000.000000000000000 ) ;
#58 = ORIENTED_EDGE ( 'NONE', *, *, #29, .F. ) ;
#59 = CARTESIAN_POINT ( 'NONE',  ( 0.0000000000000000000, 0.0000000000000000000, -0.7500000000000000000 ) ) ;
#60 = FACE_OUTER_BOUND ( 'NONE', #70, .T. ) ;
#61 = PERSON_AND_ORGANIZATION ( #114, #75 ) ;
#62 = AXIS2_PLACEMENT_3D ( 'NONE', #86, #6, #153 ) ;
#63 = CARTESIAN_POINT ( 'NONE',  ( -69.84999999999999400, 0.0000000000000000000, 0.7500000000000000000 ) ) ;
#64 = CARTESIAN_POINT ( 'NONE',  ( 0.0000000000000000000, 0.0000000000000000000, 0.0000000000000000000 ) ) ;
#65 = CC_DESIGN_APPROVAL ( #174, ( #48 ) ) ;
#66 = DIRECTION ( 'NONE',  ( 1.000000000000000000, 0.0000000000000000000, 0.0000000000000000000 ) ) ;
#67 = APPLICATION_PROTOCOL_DEFINITION ( 'international standard', 'config_control_design', 1994, #145 ) ;
#68 = APPROVAL_ROLE ( '' ) ;
#69 = APPROVAL_DATE_TIME ( #126, #174 ) ;
#70 = EDGE_LOOP ( 'NONE', ( #49, #9, #14, #22 ) ) ;
#71 = LOCAL_TIME ( 15, 33, 52.00000000000000000, #28 ) ;
#72 = DESIGN_CONTEXT ( 'detailed design', #145, 'design' ) ;
#73 = DIRECTION ( 'NONE',  ( 0.0000000000000000000, 0.0000000000000000000, 1.000000000000000000 ) ) ;
#74 = CARTESIAN_POINT ( 'NONE',  ( 0.0000000000000000000, 0.0000000000000000000, -0.7500000000000000000 ) ) ;
#75 = ORGANIZATION ( 'UNSPECIFIED', 'UNSPECIFIED', '' ) ;
#76 = ADVANCED_FACE ( 'NONE', ( #91 ), #84, .T. ) ;
#77 = EDGE_LOOP ( 'NONE', ( #116, #83 ) ) ;
#78 = APPROVAL_DATE_TIME ( #107, #21 ) ;
#79 =( NAMED_UNIT ( * ) PLANE_ANGLE_UNIT ( ) SI_UNIT ( $, .RADIAN. ) );
#80 = APPROVAL_ROLE ( '' ) ;
#81 = COORDINATED_UNIVERSAL_TIME_OFFSET ( 5, 0, .BEHIND. ) ;
#82 = CC_DESIGN_APPROVAL ( #23, ( #89 ) ) ;
#83 = ORIENTED_EDGE ( 'NONE', *, *, #155, .T. ) ;
#84 = PLANE ( 'NONE',  #62 ) ;
#85 = CALENDAR_DATE ( 2017, 24, 4 ) ;
#86 = CARTESIAN_POINT ( 'NONE',  ( 0.0000000000000000000, 0.0000000000000000000, 0.7500000000000000000 ) ) ;
#87 = CARTESIAN_POINT ( 'NONE',  ( -69.84999999999999400, 0.0000000000000000000, 0.7500000000000000000 ) ) ;
#88 = CC_DESIGN_DATE_AND_TIME_ASSIGNMENT ( #169, #55, ( #119 ) ) ;
#89 = PRODUCT_DEFINITION ( 'UNKNOWN', '', #48, #72 ) ;
#90 = COORDINATED_UNIVERSAL_TIME_OFFSET ( 5, 0, .BEHIND. ) ;
#91 = FACE_OUTER_BOUND ( 'NONE', #77, .T. ) ;
#92 = DATE_TIME_ROLE ( 'creation_date' ) ;
#93 = APPROVAL_PERSON_ORGANIZATION ( #122, #174, #104 ) ;
#94 = COORDINATED_UNIVERSAL_TIME_OFFSET ( 5, 0, .BEHIND. ) ;
#95 = AXIS2_PLACEMENT_3D ( 'NONE', #51, #144, #66 ) ;
#96 = APPROVAL_PERSON_ORGANIZATION ( #31, #21, #68 ) ;
#97 = PLANE ( 'NONE',  #35 ) ;
#98 = UNCERTAINTY_MEASURE_WITH_UNIT (LENGTH_MEASURE( 1.000000000000000100E-005 ), #162, 'distance_accuracy_value', 'NONE');
#99 = EDGE_CURVE ( 'NONE', #3, #110, #50, .T. ) ;
#100 = PERSON_AND_ORGANIZATION ( #114, #75 ) ;
#101 = ORIENTED_EDGE ( 'NONE', *, *, #99, .F. ) ;
#102 = CC_DESIGN_PERSON_AND_ORGANIZATION_ASSIGNMENT ( #133, #132, ( #119 ) ) ;
#103 = CARTESIAN_POINT ( 'NONE',  ( 0.0000000000000000000, 0.0000000000000000000, 0.7500000000000000000 ) ) ;
#104 = APPROVAL_ROLE ( '' ) ;
#105 = CLOSED_SHELL ( 'NONE', ( #136, #20, #76, #8 ) ) ;
#106 = EDGE_LOOP ( 'NONE', ( #58, #121 ) ) ;
#107 = DATE_AND_TIME ( #54, #157 ) ;
#108 = DIRECTION ( 'NONE',  ( 1.000000000000000000, 0.0000000000000000000, 0.0000000000000000000 ) ) ;
#109 = AXIS2_PLACEMENT_3D ( 'NONE', #118, #18, #5 ) ;
#110 = VERTEX_POINT ( 'NONE', #143 ) ;
#111 = EDGE_CURVE ( 'NONE', #142, #3, #128, .T. ) ;
#112 = DIRECTION ( 'NONE',  ( 1.000000000000000000, 0.0000000000000000000, 0.0000000000000000000 ) ) ;
#113 = DIRECTION ( 'NONE',  ( 0.0000000000000000000, 0.0000000000000000000, 1.000000000000000000 ) ) ;
#114 = PERSON ( 'UNSPECIFIED', 'UNSPECIFIED', 'UNSPECIFIED', ('UNSPECIFIED'), ('UNSPECIFIED'), ('UNSPECIFIED') ) ;
#115 = PERSON_AND_ORGANIZATION_ROLE ( 'design_supplier' ) ;
#116 = ORIENTED_EDGE ( 'NONE', *, *, #111, .T. ) ;
#117 = CYLINDRICAL_SURFACE ( 'NONE', #109, 69.84999999999999400 ) ;
#118 = CARTESIAN_POINT ( 'NONE',  ( 0.0000000000000000000, 0.0000000000000000000, 0.7500000000000000000 ) ) ;
#119 = SECURITY_CLASSIFICATION ( '', '', #39 ) ;
#120 = AXIS2_PLACEMENT_3D ( 'NONE', #42, #172, #108 ) ;
#121 = ORIENTED_EDGE ( 'NONE', *, *, #171, .F. ) ;
#122 = PERSON_AND_ORGANIZATION ( #114, #75 ) ;
#123 = DIRECTION ( 'NONE',  ( -0.0000000000000000000, -0.0000000000000000000, -1.000000000000000000 ) ) ;
#124 = LINE ( 'NONE', #63, #57 ) ;
#125 = ORIENTED_EDGE ( 'NONE', *, *, #29, .T. ) ;
#126 = DATE_AND_TIME ( #13, #16 ) ;
#127 = CALENDAR_DATE ( 2017, 24, 4 ) ;
#128 = CIRCLE ( 'NONE', #120, 69.84999999999999400 ) ;
#129 = CC_DESIGN_PERSON_AND_ORGANIZATION_ASSIGNMENT ( #61, #27, ( #48 ) ) ;
#130 = MECHANICAL_CONTEXT ( 'NONE', #26, 'mechanical' ) ;
#131 = PRODUCT ( 'Web Model 43925_43926', 'Web Model 43925_43926', '', ( #130 ) ) ;
#132 = PERSON_AND_ORGANIZATION_ROLE ( 'classification_officer' ) ;
#133 = PERSON_AND_ORGANIZATION ( #114, #75 ) ;
#134 = EDGE_CURVE ( 'NONE', #142, #45, #124, .T. ) ;
#135 = CARTESIAN_POINT ( 'NONE',  ( 0.0000000000000000000, 0.0000000000000000000, 0.7500000000000000000 ) ) ;
#136 = ADVANCED_FACE ( 'NONE', ( #60 ), #117, .T. ) ;
#137 = FACE_OUTER_BOUND ( 'NONE', #106, .T. ) ;
#138 = DIRECTION ( 'NONE',  ( 1.000000000000000000, 0.0000000000000000000, -0.0000000000000000000 ) ) ;
#139 = CALENDAR_DATE ( 2017, 24, 4 ) ;
#140 = PRODUCT_RELATED_PRODUCT_CATEGORY ( 'detail', '', ( #131 ) ) ;
#141 = AXIS2_PLACEMENT_3D ( 'NONE', #103, #25, #112 ) ;
#142 = VERTEX_POINT ( 'NONE', #87 ) ;
#143 = CARTESIAN_POINT ( 'NONE',  ( 69.84999999999999400, 8.554157892044261800E-015, -0.7500000000000000000 ) ) ;
#144 = DIRECTION ( 'NONE',  ( 0.0000000000000000000, 0.0000000000000000000, 1.000000000000000000 ) ) ;
#145 = APPLICATION_CONTEXT ( 'configuration controlled 3d designs of mechanical parts and assemblies' ) ;
#146 = APPROVAL_STATUS ( 'not_yet_approved' ) ;
#147 = ORIENTED_EDGE ( 'NONE', *, *, #111, .F. ) ;
#148 = ADVANCED_BREP_SHAPE_REPRESENTATION ( 'Web Model 43925_43926', ( #166, #41 ), #175 ) ;
#149 = CC_DESIGN_PERSON_AND_ORGANIZATION_ASSIGNMENT ( #159, #2, ( #89 ) ) ;
#150 = PERSON_AND_ORGANIZATION ( #114, #75 ) ;
#151 = AXIS2_PLACEMENT_3D ( 'NONE', #59, #73, #15 ) ;
#152 = EDGE_LOOP ( 'NONE', ( #101, #147, #164, #125 ) ) ;
#153 = DIRECTION ( 'NONE',  ( 1.000000000000000000, 0.0000000000000000000, -0.0000000000000000000 ) ) ;
#154 = SHAPE_DEFINITION_REPRESENTATION ( #158, #148 ) ;
#155 = EDGE_CURVE ( 'NONE', #3, #142, #160, .T. ) ;
#156 = DIRECTION ( 'NONE',  ( -0.0000000000000000000, -0.0000000000000000000, -1.000000000000000000 ) ) ;
#157 = LOCAL_TIME ( 15, 33, 52.00000000000000000, #94 ) ;
#158 = PRODUCT_DEFINITION_SHAPE ( 'NONE', 'NONE',  #89 ) ;
#159 = PERSON_AND_ORGANIZATION ( #114, #75 ) ;
#160 = CIRCLE ( 'NONE', #141, 69.84999999999999400 ) ;
#161 = CC_DESIGN_SECURITY_CLASSIFICATION ( #119, ( #48 ) ) ;
#162 =( LENGTH_UNIT ( ) NAMED_UNIT ( * ) SI_UNIT ( .MILLI., .METRE. ) );
#163 = APPROVAL_STATUS ( 'not_yet_approved' ) ;
#164 = ORIENTED_EDGE ( 'NONE', *, *, #134, .T. ) ;
#165 = DATE_AND_TIME ( #85, #56 ) ;
#166 = MANIFOLD_SOLID_BREP ( 'Boss-Extrude1', #105 ) ;
#167 = APPROVAL_DATE_TIME ( #43, #23 ) ;
#168 = DIRECTION ( 'NONE',  ( -0.0000000000000000000, -0.0000000000000000000, -1.000000000000000000 ) ) ;
#169 = DATE_AND_TIME ( #127, #71 ) ;
#170 = VECTOR ( 'NONE', #168, 1000.000000000000000 ) ;
#171 = EDGE_CURVE ( 'NONE', #110, #45, #24, .T. ) ;
#172 = DIRECTION ( 'NONE',  ( 0.0000000000000000000, 0.0000000000000000000, 1.000000000000000000 ) ) ;
#173 = DIRECTION ( 'NONE',  ( -1.000000000000000000, 0.0000000000000000000, 0.0000000000000000000 ) ) ;
#174 = APPROVAL ( #12, 'UNSPECIFIED' ) ;
#175 =( GEOMETRIC_REPRESENTATION_CONTEXT ( 3 ) GLOBAL_UNCERTAINTY_ASSIGNED_CONTEXT ( ( #98 ) ) GLOBAL_UNIT_ASSIGNED_CONTEXT ( ( #162, #79, #1 ) ) REPRESENTATION_CONTEXT ( 'NONE', 'WORKASPACE' ) );
ENDSEC;
END-ISO-10303-21;
