ISO-10303-21;
HEADER;
FILE_DESCRIPTION (( 'STEP AP203' ),
    '1' );
FILE_NAME ('Web Model 47126_47782.step',
    '2017-06-06T16:54:54',
    ( '' ),
    ( '' ),
    'SwSTEP 2.0',
    'SolidWorks 2016',
    '' );
FILE_SCHEMA (( 'CONFIG_CONTROL_DESIGN' ));
ENDSEC;

DATA;
#1 = EDGE_LOOP ( 'NONE', ( #273, #78, #18, #313 ) ) ;
#2 = AXIS2_PLACEMENT_3D ( 'NONE', #157, #137, #68 ) ;
#3 = LINE ( 'NONE', #203, #26 ) ;
#4 = EDGE_CURVE ( 'NONE', #105, #211, #239, .T. ) ;
#5 = MANIFOLD_SOLID_BREP ( 'Boss-Extrude3', #44 ) ;
#6 = DATE_AND_TIME ( #149, #267 ) ;
#7 = VERTEX_POINT ( 'NONE', #288 ) ;
#8 = ADVANCED_FACE ( 'NONE', ( #147 ), #166, .F. ) ;
#9 = CARTESIAN_POINT ( 'NONE',  ( 0.0000000000000000000, -10.00000000000000000, 10.00000000000000000 ) ) ;
#10 = CARTESIAN_POINT ( 'NONE',  ( -10.00000000000000000, 10.00000000000000000, -10.00000000000000000 ) ) ;
#11 = PLANE ( 'NONE',  #2 ) ;
#12 = DATE_AND_TIME ( #116, #281 ) ;
#13 = AXIS2_PLACEMENT_3D ( 'NONE', #195, #319, #194 ) ;
#14 = EDGE_LOOP ( 'NONE', ( #274, #106, #107 ) ) ;
#15 = CARTESIAN_POINT ( 'NONE',  ( 0.0000000000000000000, 0.0000000000000000000, 10.00000000000000000 ) ) ;
#16 = CC_DESIGN_DATE_AND_TIME_ASSIGNMENT ( #198, #241, ( #304 ) ) ;
#17 = DIRECTION ( 'NONE',  ( -0.0000000000000000000, 0.0000000000000000000, 1.000000000000000000 ) ) ;
#18 = ORIENTED_EDGE ( 'NONE', *, *, #138, .T. ) ;
#19 =( GEOMETRIC_REPRESENTATION_CONTEXT ( 3 ) GLOBAL_UNCERTAINTY_ASSIGNED_CONTEXT ( ( #264 ) ) GLOBAL_UNIT_ASSIGNED_CONTEXT ( ( #39, #300, #221 ) ) REPRESENTATION_CONTEXT ( 'NONE', 'WORKASPACE' ) );
#20 = EDGE_CURVE ( 'NONE', #61, #7, #65, .T. ) ;
#21 = DIRECTION ( 'NONE',  ( 0.7071067811865474600, -0.7071067811865474600, 0.0000000000000000000 ) ) ;
#22 = CARTESIAN_POINT ( 'NONE',  ( -0.0000000000000000000, 10.00000000000000000, -10.00000000000000000 ) ) ;
#23 = COORDINATED_UNIVERSAL_TIME_OFFSET ( 5, 0, .BEHIND. ) ;
#24 = PERSON_AND_ORGANIZATION ( #295, #133 ) ;
#25 = APPLICATION_CONTEXT ( 'configuration controlled 3d designs of mechanical parts and assemblies' ) ;
#26 = VECTOR ( 'NONE', #277, 1000.000000000000000 ) ;
#27 = FACE_OUTER_BOUND ( 'NONE', #43, .T. ) ;
#28 = APPLICATION_PROTOCOL_DEFINITION ( 'international standard', 'config_control_design', 1994, #100 ) ;
#29 = PERSON_AND_ORGANIZATION ( #295, #133 ) ;
#30 = ORIENTED_EDGE ( 'NONE', *, *, #308, .F. ) ;
#31 = LINE ( 'NONE', #317, #237 ) ;
#32 = PERSON_AND_ORGANIZATION ( #295, #133 ) ;
#33 = APPROVAL ( #60, 'UNSPECIFIED' ) ;
#34 = VECTOR ( 'NONE', #226, 1000.000000000000000 ) ;
#35 = VERTEX_POINT ( 'NONE', #236 ) ;
#36 = DIRECTION ( 'NONE',  ( 0.0000000000000000000, 1.000000000000000000, 0.0000000000000000000 ) ) ;
#37 = AXIS2_PLACEMENT_3D ( 'NONE', #161, #305, #66 ) ;
#38 = EDGE_CURVE ( 'NONE', #132, #35, #303, .T. ) ;
#39 =( LENGTH_UNIT ( ) NAMED_UNIT ( * ) SI_UNIT ( .MILLI., .METRE. ) );
#40 = CARTESIAN_POINT ( 'NONE',  ( 10.00000000000000000, -10.00000000000000000, -10.00000000000000000 ) ) ;
#41 = ORIENTED_EDGE ( 'NONE', *, *, #4, .T. ) ;
#42 = ORIENTED_EDGE ( 'NONE', *, *, #213, .T. ) ;
#43 = EDGE_LOOP ( 'NONE', ( #223, #158, #103 ) ) ;
#44 = CLOSED_SHELL ( 'NONE', ( #201, #67, #202, #283, #8 ) ) ;
#45 = CARTESIAN_POINT ( 'NONE',  ( 10.00000000000000000, 10.00000000000000000, 10.00000000000000000 ) ) ;
#46 = EDGE_LOOP ( 'NONE', ( #140, #118, #95, #85 ) ) ;
#47 = APPROVAL_PERSON_ORGANIZATION ( #171, #33, #99 ) ;
#48 = ORIENTED_EDGE ( 'NONE', *, *, #199, .F. ) ;
#49 = LINE ( 'NONE', #257, #191 ) ;
#50 = AXIS2_PLACEMENT_3D ( 'NONE', #97, #94, #98 ) ;
#51 = DIRECTION ( 'NONE',  ( 0.7071067811865474600, -0.7071067811865474600, 0.0000000000000000000 ) ) ;
#52 = DATE_TIME_ROLE ( 'creation_date' ) ;
#53 = VECTOR ( 'NONE', #51, 1000.000000000000100 ) ;
#54 = FACE_OUTER_BOUND ( 'NONE', #58, .T. ) ;
#55 = PERSON_AND_ORGANIZATION_ROLE ( 'classification_officer' ) ;
#56 = ORIENTED_EDGE ( 'NONE', *, *, #251, .T. ) ;
#57 = APPROVAL_DATE_TIME ( #220, #150 ) ;
#58 = EDGE_LOOP ( 'NONE', ( #224, #269, #144, #227 ) ) ;
#59 = EDGE_CURVE ( 'NONE', #159, #110, #245, .T. ) ;
#60 = APPROVAL_STATUS ( 'not_yet_approved' ) ;
#61 = VERTEX_POINT ( 'NONE', #291 ) ;
#62 = ADVANCED_FACE ( 'NONE', ( #176 ), #121, .F. ) ;
#63 = DIRECTION ( 'NONE',  ( 1.000000000000000000, 0.0000000000000000000, 0.0000000000000000000 ) ) ;
#64 = FACE_OUTER_BOUND ( 'NONE', #248, .T. ) ;
#65 = LINE ( 'NONE', #315, #222 ) ;
#66 = DIRECTION ( 'NONE',  ( 1.000000000000000000, 0.0000000000000000000, 0.0000000000000000000 ) ) ;
#67 = ADVANCED_FACE ( 'NONE', ( #181 ), #143, .F. ) ;
#68 = DIRECTION ( 'NONE',  ( -0.7071067811865474600, 0.7071067811865474600, 0.0000000000000000000 ) ) ;
#69 = CARTESIAN_POINT ( 'NONE',  ( -10.00000000000000000, 0.0000000000000000000, -10.00000000000000000 ) ) ;
#70 = PERSON_AND_ORGANIZATION ( #295, #133 ) ;
#71 = DIRECTION ( 'NONE',  ( 1.000000000000000000, 0.0000000000000000000, 0.0000000000000000000 ) ) ;
#72 = ORIENTED_EDGE ( 'NONE', *, *, #199, .T. ) ;
#73 = DIRECTION ( 'NONE',  ( -0.0000000000000000000, -0.0000000000000000000, -1.000000000000000000 ) ) ;
#74 = EDGE_CURVE ( 'NONE', #159, #132, #31, .T. ) ;
#75 = PLANE ( 'NONE',  #50 ) ;
#76 = APPROVAL_ROLE ( '' ) ;
#77 = DIRECTION ( 'NONE',  ( 1.000000000000000000, 0.0000000000000000000, 0.0000000000000000000 ) ) ;
#78 = ORIENTED_EDGE ( 'NONE', *, *, #151, .F. ) ;
#79 = PERSON_AND_ORGANIZATION_ROLE ( 'design_supplier' ) ;
#80 = LINE ( 'NONE', #112, #309 ) ;
#81 = VECTOR ( 'NONE', #228, 1000.000000000000000 ) ;
#82 = PLANE ( 'NONE',  #37 ) ;
#83 = LINE ( 'NONE', #260, #179 ) ;
#84 = DIRECTION ( 'NONE',  ( 1.000000000000000000, 0.0000000000000000000, 0.0000000000000000000 ) ) ;
#85 = ORIENTED_EDGE ( 'NONE', *, *, #59, .T. ) ;
#86 = DIRECTION ( 'NONE',  ( -0.0000000000000000000, -0.0000000000000000000, -1.000000000000000000 ) ) ;
#87 = EDGE_CURVE ( 'NONE', #146, #110, #49, .T. ) ;
#88 = DIRECTION ( 'NONE',  ( 0.0000000000000000000, 1.000000000000000000, -0.0000000000000000000 ) ) ;
#89 = CALENDAR_DATE ( 2017, 6, 6 ) ;
#90 = DIRECTION ( 'NONE',  ( 0.7071067811865475700, 0.7071067811865475700, -0.0000000000000000000 ) ) ;
#91 = PERSON_AND_ORGANIZATION ( #295, #133 ) ;
#92 = COORDINATED_UNIVERSAL_TIME_OFFSET ( 5, 0, .BEHIND. ) ;
#93 = PLANE ( 'NONE',  #219 ) ;
#94 = DIRECTION ( 'NONE',  ( -1.000000000000000000, 0.0000000000000000000, 0.0000000000000000000 ) ) ;
#95 = ORIENTED_EDGE ( 'NONE', *, *, #74, .F. ) ;
#96 = LINE ( 'NONE', #206, #177 ) ;
#97 = CARTESIAN_POINT ( 'NONE',  ( -10.00000000000000000, 0.0000000000000000000, 10.00000000000000000 ) ) ;
#98 = DIRECTION ( 'NONE',  ( 0.0000000000000000000, 0.0000000000000000000, 1.000000000000000000 ) ) ;
#99 = APPROVAL_ROLE ( '' ) ;
#100 = APPLICATION_CONTEXT ( 'configuration controlled 3d designs of mechanical parts and assemblies' ) ;
#101 = AXIS2_PLACEMENT_3D ( 'NONE', #109, #320, #266 ) ;
#102 = EDGE_CURVE ( 'NONE', #146, #35, #310, .T. ) ;
#103 = ORIENTED_EDGE ( 'NONE', *, *, #138, .F. ) ;
#104 = EDGE_LOOP ( 'NONE', ( #72, #41, #200 ) ) ;
#105 = VERTEX_POINT ( 'NONE', #265 ) ;
#106 = ORIENTED_EDGE ( 'NONE', *, *, #102, .T. ) ;
#107 = ORIENTED_EDGE ( 'NONE', *, *, #170, .F. ) ;
#108 = DIRECTION ( 'NONE',  ( 0.0000000000000000000, -0.0000000000000000000, 1.000000000000000000 ) ) ;
#109 = CARTESIAN_POINT ( 'NONE',  ( 0.0000000000000000000, 0.0000000000000000000, 0.0000000000000000000 ) ) ;
#110 = VERTEX_POINT ( 'NONE', #164 ) ;
#111 = VECTOR ( 'NONE', #63, 1000.000000000000000 ) ;
#112 = CARTESIAN_POINT ( 'NONE',  ( -10.00000000000000000, 10.00000000000000000, 10.00000000000000000 ) ) ;
#113 = DIRECTION ( 'NONE',  ( -0.0000000000000000000, -0.0000000000000000000, -1.000000000000000000 ) ) ;
#114 = COORDINATED_UNIVERSAL_TIME_OFFSET ( 5, 0, .BEHIND. ) ;
#115 = COORDINATED_UNIVERSAL_TIME_OFFSET ( 5, 0, .BEHIND. ) ;
#116 = CALENDAR_DATE ( 2017, 6, 6 ) ;
#117 = ORIENTED_EDGE ( 'NONE', *, *, #87, .T. ) ;
#118 = ORIENTED_EDGE ( 'NONE', *, *, #38, .F. ) ;
#119 = CARTESIAN_POINT ( 'NONE',  ( -10.00000000000000000, -10.00000000000000000, 10.00000000000000000 ) ) ;
#120 = CC_DESIGN_PERSON_AND_ORGANIZATION_ASSIGNMENT ( #32, #272, ( #145 ) ) ;
#121 = PLANE ( 'NONE',  #302 ) ;
#122 = EDGE_CURVE ( 'NONE', #279, #159, #83, .T. ) ;
#123 = DIRECTION ( 'NONE',  ( 1.000000000000000000, 0.0000000000000000000, 0.0000000000000000000 ) ) ;
#124 = MECHANICAL_CONTEXT ( 'NONE', #25, 'mechanical' ) ;
#125 = FACE_OUTER_BOUND ( 'NONE', #169, .T. ) ;
#126 = VERTEX_POINT ( 'NONE', #119 ) ;
#127 = APPROVAL_STATUS ( 'not_yet_approved' ) ;
#128 = LOCAL_TIME ( 12, 54, 54.00000000000000000, #306 ) ;
#129 = SHAPE_DEFINITION_REPRESENTATION ( #153, #298 ) ;
#130 = PERSON_AND_ORGANIZATION_ROLE ( 'creator' ) ;
#131 = ORIENTED_EDGE ( 'NONE', *, *, #186, .F. ) ;
#132 = VERTEX_POINT ( 'NONE', #45 ) ;
#133 = ORGANIZATION ( 'UNSPECIFIED', 'UNSPECIFIED', '' ) ;
#134 = ADVANCED_FACE ( 'NONE', ( #278 ), #75, .T. ) ;
#135 = DIRECTION ( 'NONE',  ( -0.0000000000000000000, -0.0000000000000000000, -1.000000000000000000 ) ) ;
#136 = PRODUCT_DEFINITION ( 'UNKNOWN', '', #217, #142 ) ;
#137 = DIRECTION ( 'NONE',  ( 0.7071067811865475700, 0.7071067811865475700, -0.0000000000000000000 ) ) ;
#138 = EDGE_CURVE ( 'NONE', #279, #132, #275, .T. ) ;
#139 = CARTESIAN_POINT ( 'NONE',  ( -10.00000000000000000, 10.00000000000000000, 10.00000000000000000 ) ) ;
#140 = ORIENTED_EDGE ( 'NONE', *, *, #170, .T. ) ;
#141 = DIRECTION ( 'NONE',  ( -0.0000000000000000000, 0.0000000000000000000, 1.000000000000000000 ) ) ;
#142 = DESIGN_CONTEXT ( 'detailed design', #100, 'design' ) ;
#143 = PLANE ( 'NONE',  #13 ) ;
#144 = ORIENTED_EDGE ( 'NONE', *, *, #20, .T. ) ;
#145 = PRODUCT ( 'Web Model 47126_47782', 'Web Model 47126_47782', '', ( #124 ) ) ;
#146 = VERTEX_POINT ( 'NONE', #10 ) ;
#147 = FACE_OUTER_BOUND ( 'NONE', #14, .T. ) ;
#148 = ORIENTED_EDGE ( 'NONE', *, *, #308, .T. ) ;
#149 = CALENDAR_DATE ( 2017, 6, 6 ) ;
#150 = APPROVAL ( #127, 'UNSPECIFIED' ) ;
#151 = EDGE_CURVE ( 'NONE', #279, #146, #207, .T. ) ;
#152 = CC_DESIGN_APPROVAL ( #33, ( #304 ) ) ;
#153 = PRODUCT_DEFINITION_SHAPE ( 'NONE', 'NONE',  #136 ) ;
#154 = ORIENTED_EDGE ( 'NONE', *, *, #59, .F. ) ;
#155 = APPROVAL_PERSON_ORGANIZATION ( #209, #234, #76 ) ;
#156 = MANIFOLD_SOLID_BREP ( 'Boss-Extrude2', #167 ) ;
#157 = CARTESIAN_POINT ( 'NONE',  ( 0.0000000000000000000, 0.0000000000000000000, 10.00000000000000000 ) ) ;
#158 = ORIENTED_EDGE ( 'NONE', *, *, #74, .T. ) ;
#159 = VERTEX_POINT ( 'NONE', #246 ) ;
#160 = ADVANCED_FACE ( 'NONE', ( #125 ), #180, .F. ) ;
#161 = CARTESIAN_POINT ( 'NONE',  ( 0.0000000000000000000, 0.0000000000000000000, 10.00000000000000000 ) ) ;
#162 = DIRECTION ( 'NONE',  ( 0.0000000000000000000, 1.000000000000000000, -0.0000000000000000000 ) ) ;
#163 = CARTESIAN_POINT ( 'NONE',  ( 0.0000000000000000000, 0.0000000000000000000, -10.00000000000000000 ) ) ;
#164 = CARTESIAN_POINT ( 'NONE',  ( 10.00000000000000000, -10.00000000000000000, -10.00000000000000000 ) ) ;
#165 = CC_DESIGN_APPROVAL ( #150, ( #136 ) ) ;
#166 = PLANE ( 'NONE',  #262 ) ;
#167 = CLOSED_SHELL ( 'NONE', ( #134, #160, #276, #184, #62 ) ) ;
#168 = CARTESIAN_POINT ( 'NONE',  ( 10.00000000000000000, 10.00000000000000000, 10.00000000000000000 ) ) ;
#169 = EDGE_LOOP ( 'NONE', ( #229, #205, #30, #289 ) ) ;
#170 = EDGE_CURVE ( 'NONE', #110, #35, #96, .T. ) ;
#171 = PERSON_AND_ORGANIZATION ( #295, #133 ) ;
#172 = CC_DESIGN_SECURITY_CLASSIFICATION ( #304, ( #217 ) ) ;
#173 = EDGE_LOOP ( 'NONE', ( #280, #148, #250 ) ) ;
#174 = VECTOR ( 'NONE', #86, 1000.000000000000000 ) ;
#175 = SECURITY_CLASSIFICATION_LEVEL ( 'unclassified' ) ;
#176 = FACE_OUTER_BOUND ( 'NONE', #104, .T. ) ;
#177 = VECTOR ( 'NONE', #162, 1000.000000000000000 ) ;
#178 = DATE_AND_TIME ( #89, #230 ) ;
#179 = VECTOR ( 'NONE', #21, 1000.000000000000100 ) ;
#180 = PLANE ( 'NONE',  #192 ) ;
#181 = FACE_OUTER_BOUND ( 'NONE', #46, .T. ) ;
#182 = CARTESIAN_POINT ( 'NONE',  ( 0.0000000000000000000, -10.00000000000000000, 10.00000000000000000 ) ) ;
#183 = CC_DESIGN_PERSON_AND_ORGANIZATION_ASSIGNMENT ( #29, #130, ( #136 ) ) ;
#184 = ADVANCED_FACE ( 'NONE', ( #301 ), #93, .T. ) ;
#185 = CARTESIAN_POINT ( 'NONE',  ( -10.00000000000000000, -10.00000000000000000, 10.00000000000000000 ) ) ;
#186 = EDGE_CURVE ( 'NONE', #126, #218, #296, .T. ) ;
#187 = APPROVAL_DATE_TIME ( #12, #33 ) ;
#188 = PRODUCT_RELATED_PRODUCT_CATEGORY ( 'detail', '', ( #145 ) ) ;
#189 = CARTESIAN_POINT ( 'NONE',  ( -10.00000000000000000, 10.00000000000000000, 10.00000000000000000 ) ) ;
#190 = VECTOR ( 'NONE', #297, 1000.000000000000000 ) ;
#191 = VECTOR ( 'NONE', #235, 1000.000000000000100 ) ;
#192 = AXIS2_PLACEMENT_3D ( 'NONE', #9, #36, #108 ) ;
#193 = LINE ( 'NONE', #282, #214 ) ;
#194 = DIRECTION ( 'NONE',  ( 0.0000000000000000000, 0.0000000000000000000, 1.000000000000000000 ) ) ;
#195 = CARTESIAN_POINT ( 'NONE',  ( 10.00000000000000000, 0.0000000000000000000, 10.00000000000000000 ) ) ;
#196 = LINE ( 'NONE', #182, #111 ) ;
#197 = CC_DESIGN_DATE_AND_TIME_ASSIGNMENT ( #6, #52, ( #136 ) ) ;
#198 = DATE_AND_TIME ( #299, #128 ) ;
#199 = EDGE_CURVE ( 'NONE', #218, #105, #311, .T. ) ;
#200 = ORIENTED_EDGE ( 'NONE', *, *, #271, .F. ) ;
#201 = ADVANCED_FACE ( 'NONE', ( #64 ), #252, .F. ) ;
#202 = ADVANCED_FACE ( 'NONE', ( #316 ), #253, .T. ) ;
#203 = CARTESIAN_POINT ( 'NONE',  ( 10.00000000000000000, -10.00000000000000000, 10.00000000000000000 ) ) ;
#204 = CARTESIAN_POINT ( 'NONE',  ( -10.00000000000000000, 0.0000000000000000000, 10.00000000000000000 ) ) ;
#205 = ORIENTED_EDGE ( 'NONE', *, *, #293, .F. ) ;
#206 = CARTESIAN_POINT ( 'NONE',  ( 10.00000000000000000, 0.0000000000000000000, -10.00000000000000000 ) ) ;
#207 = LINE ( 'NONE', #189, #174 ) ;
#208 = APPROVAL_PERSON_ORGANIZATION ( #24, #150, #240 ) ;
#209 = PERSON_AND_ORGANIZATION ( #295, #133 ) ;
#210 = CARTESIAN_POINT ( 'NONE',  ( 0.0000000000000000000, 0.0000000000000000000, -10.00000000000000000 ) ) ;
#211 = VERTEX_POINT ( 'NONE', #40 ) ;
#212 = DIRECTION ( 'NONE',  ( 0.7071067811865474600, -0.7071067811865474600, 0.0000000000000000000 ) ) ;
#213 = EDGE_CURVE ( 'NONE', #126, #61, #231, .T. ) ;
#214 = VECTOR ( 'NONE', #84, 1000.000000000000000 ) ;
#215 = DIRECTION ( 'NONE',  ( -0.0000000000000000000, 0.0000000000000000000, 1.000000000000000000 ) ) ;
#216 = APPROVAL_STATUS ( 'not_yet_approved' ) ;
#217 = PRODUCT_DEFINITION_FORMATION_WITH_SPECIFIED_SOURCE ( 'ANY', '', #145, .NOT_KNOWN. ) ;
#218 = VERTEX_POINT ( 'NONE', #249 ) ;
#219 = AXIS2_PLACEMENT_3D ( 'NONE', #15, #141, #71 ) ;
#220 = DATE_AND_TIME ( #254, #256 ) ;
#221 =( NAMED_UNIT ( * ) SI_UNIT ( $, .STERADIAN. ) SOLID_ANGLE_UNIT ( ) );
#222 = VECTOR ( 'NONE', #212, 1000.000000000000100 ) ;
#223 = ORIENTED_EDGE ( 'NONE', *, *, #122, .T. ) ;
#224 = ORIENTED_EDGE ( 'NONE', *, *, #4, .F. ) ;
#225 = CARTESIAN_POINT ( 'NONE',  ( 0.0000000000000000000, 10.00000000000000000, 10.00000000000000000 ) ) ;
#226 = DIRECTION ( 'NONE',  ( 0.0000000000000000000, 1.000000000000000000, -0.0000000000000000000 ) ) ;
#227 = ORIENTED_EDGE ( 'NONE', *, *, #293, .T. ) ;
#228 = DIRECTION ( 'NONE',  ( 1.000000000000000000, 0.0000000000000000000, 0.0000000000000000000 ) ) ;
#229 = ORIENTED_EDGE ( 'NONE', *, *, #271, .T. ) ;
#230 = LOCAL_TIME ( 12, 54, 54.00000000000000000, #115 ) ;
#231 = LINE ( 'NONE', #204, #34 ) ;
#232 = CARTESIAN_POINT ( 'NONE',  ( 0.0000000000000000000, 10.00000000000000000, 10.00000000000000000 ) ) ;
#233 = DIRECTION ( 'NONE',  ( 0.0000000000000000000, 1.000000000000000000, 0.0000000000000000000 ) ) ;
#234 = APPROVAL ( #216, 'UNSPECIFIED' ) ;
#235 = DIRECTION ( 'NONE',  ( 0.7071067811865474600, -0.7071067811865474600, 0.0000000000000000000 ) ) ;
#236 = CARTESIAN_POINT ( 'NONE',  ( 10.00000000000000000, 10.00000000000000000, -10.00000000000000000 ) ) ;
#237 = VECTOR ( 'NONE', #292, 1000.000000000000000 ) ;
#238 = CARTESIAN_POINT ( 'NONE',  ( -0.0000000000000000000, 0.0000000000000000000, -10.00000000000000000 ) ) ;
#239 = LINE ( 'NONE', #238, #53 ) ;
#240 = APPROVAL_ROLE ( '' ) ;
#241 = DATE_TIME_ROLE ( 'classification_date' ) ;
#242 = ORIENTED_EDGE ( 'NONE', *, *, #122, .F. ) ;
#243 = CC_DESIGN_APPROVAL ( #234, ( #217 ) ) ;
#244 = EDGE_LOOP ( 'NONE', ( #48, #131, #42, #56 ) ) ;
#245 = LINE ( 'NONE', #294, #287 ) ;
#246 = CARTESIAN_POINT ( 'NONE',  ( 10.00000000000000000, -10.00000000000000000, 10.00000000000000000 ) ) ;
#247 = AXIS2_PLACEMENT_3D ( 'NONE', #312, #90, #285 ) ;
#248 = EDGE_LOOP ( 'NONE', ( #117, #154, #242, #261 ) ) ;
#249 = CARTESIAN_POINT ( 'NONE',  ( -10.00000000000000000, -10.00000000000000000, -10.00000000000000000 ) ) ;
#250 = ORIENTED_EDGE ( 'NONE', *, *, #20, .F. ) ;
#251 = EDGE_CURVE ( 'NONE', #61, #105, #80, .T. ) ;
#252 = PLANE ( 'NONE',  #247 ) ;
#253 = PLANE ( 'NONE',  #290 ) ;
#254 = CALENDAR_DATE ( 2017, 6, 6 ) ;
#255 = APPROVAL_DATE_TIME ( #178, #234 ) ;
#256 = LOCAL_TIME ( 12, 54, 54.00000000000000000, #92 ) ;
#257 = CARTESIAN_POINT ( 'NONE',  ( -0.0000000000000000000, 0.0000000000000000000, -10.00000000000000000 ) ) ;
#258 = VECTOR ( 'NONE', #77, 1000.000000000000000 ) ;
#259 = VECTOR ( 'NONE', #88, 1000.000000000000000 ) ;
#260 = CARTESIAN_POINT ( 'NONE',  ( 0.0000000000000000000, 0.0000000000000000000, 10.00000000000000000 ) ) ;
#261 = ORIENTED_EDGE ( 'NONE', *, *, #151, .T. ) ;
#262 = AXIS2_PLACEMENT_3D ( 'NONE', #163, #215, #123 ) ;
#263 = PERSON_AND_ORGANIZATION_ROLE ( 'creator' ) ;
#264 = UNCERTAINTY_MEASURE_WITH_UNIT (LENGTH_MEASURE( 1.000000000000000100E-005 ), #39, 'distance_accuracy_value', 'NONE');
#265 = CARTESIAN_POINT ( 'NONE',  ( -10.00000000000000000, 10.00000000000000000, -10.00000000000000000 ) ) ;
#266 = DIRECTION ( 'NONE',  ( 1.000000000000000000, 0.0000000000000000000, 0.0000000000000000000 ) ) ;
#267 = LOCAL_TIME ( 12, 54, 54.00000000000000000, #114 ) ;
#268 = CC_DESIGN_PERSON_AND_ORGANIZATION_ASSIGNMENT ( #91, #263, ( #217 ) ) ;
#269 = ORIENTED_EDGE ( 'NONE', *, *, #251, .F. ) ;
#270 = APPLICATION_PROTOCOL_DEFINITION ( 'international standard', 'config_control_design', 1994, #25 ) ;
#271 = EDGE_CURVE ( 'NONE', #218, #211, #193, .T. ) ;
#272 = PERSON_AND_ORGANIZATION_ROLE ( 'design_owner' ) ;
#273 = ORIENTED_EDGE ( 'NONE', *, *, #102, .F. ) ;
#274 = ORIENTED_EDGE ( 'NONE', *, *, #87, .F. ) ;
#275 = LINE ( 'NONE', #225, #81 ) ;
#276 = ADVANCED_FACE ( 'NONE', ( #54 ), #11, .T. ) ;
#277 = DIRECTION ( 'NONE',  ( -0.0000000000000000000, -0.0000000000000000000, -1.000000000000000000 ) ) ;
#278 = FACE_OUTER_BOUND ( 'NONE', #244, .T. ) ;
#279 = VERTEX_POINT ( 'NONE', #139 ) ;
#280 = ORIENTED_EDGE ( 'NONE', *, *, #213, .F. ) ;
#281 = LOCAL_TIME ( 12, 54, 54.00000000000000000, #23 ) ;
#282 = CARTESIAN_POINT ( 'NONE',  ( 0.0000000000000000000, -10.00000000000000000, -10.00000000000000000 ) ) ;
#283 = ADVANCED_FACE ( 'NONE', ( #27 ), #82, .T. ) ;
#284 = DIRECTION ( 'NONE',  ( 0.0000000000000000000, -0.0000000000000000000, 1.000000000000000000 ) ) ;
#285 = DIRECTION ( 'NONE',  ( -0.7071067811865474600, 0.7071067811865474600, 0.0000000000000000000 ) ) ;
#286 = CC_DESIGN_PERSON_AND_ORGANIZATION_ASSIGNMENT ( #307, #79, ( #217 ) ) ;
#287 = VECTOR ( 'NONE', #73, 1000.000000000000000 ) ;
#288 = CARTESIAN_POINT ( 'NONE',  ( 10.00000000000000000, -10.00000000000000000, 10.00000000000000000 ) ) ;
#289 = ORIENTED_EDGE ( 'NONE', *, *, #186, .T. ) ;
#290 = AXIS2_PLACEMENT_3D ( 'NONE', #232, #233, #284 ) ;
#291 = CARTESIAN_POINT ( 'NONE',  ( -10.00000000000000000, 10.00000000000000000, 10.00000000000000000 ) ) ;
#292 = DIRECTION ( 'NONE',  ( 0.0000000000000000000, 1.000000000000000000, -0.0000000000000000000 ) ) ;
#293 = EDGE_CURVE ( 'NONE', #7, #211, #3, .T. ) ;
#294 = CARTESIAN_POINT ( 'NONE',  ( 10.00000000000000000, -10.00000000000000000, 10.00000000000000000 ) ) ;
#295 = PERSON ( 'UNSPECIFIED', 'UNSPECIFIED', 'UNSPECIFIED', ('UNSPECIFIED'), ('UNSPECIFIED'), ('UNSPECIFIED') ) ;
#296 = LINE ( 'NONE', #185, #314 ) ;
#297 = DIRECTION ( 'NONE',  ( -0.0000000000000000000, -0.0000000000000000000, -1.000000000000000000 ) ) ;
#298 = ADVANCED_BREP_SHAPE_REPRESENTATION ( 'Web Model 47126_47782', ( #156, #5, #101 ), #19 ) ;
#299 = CALENDAR_DATE ( 2017, 6, 6 ) ;
#300 =( NAMED_UNIT ( * ) PLANE_ANGLE_UNIT ( ) SI_UNIT ( $, .RADIAN. ) );
#301 = FACE_OUTER_BOUND ( 'NONE', #173, .T. ) ;
#302 = AXIS2_PLACEMENT_3D ( 'NONE', #210, #17, #318 ) ;
#303 = LINE ( 'NONE', #168, #190 ) ;
#304 = SECURITY_CLASSIFICATION ( '', '', #175 ) ;
#305 = DIRECTION ( 'NONE',  ( -0.0000000000000000000, 0.0000000000000000000, 1.000000000000000000 ) ) ;
#306 = COORDINATED_UNIVERSAL_TIME_OFFSET ( 5, 0, .BEHIND. ) ;
#307 = PERSON_AND_ORGANIZATION ( #295, #133 ) ;
#308 = EDGE_CURVE ( 'NONE', #126, #7, #196, .T. ) ;
#309 = VECTOR ( 'NONE', #135, 1000.000000000000000 ) ;
#310 = LINE ( 'NONE', #22, #258 ) ;
#311 = LINE ( 'NONE', #69, #259 ) ;
#312 = CARTESIAN_POINT ( 'NONE',  ( 0.0000000000000000000, 0.0000000000000000000, 10.00000000000000000 ) ) ;
#313 = ORIENTED_EDGE ( 'NONE', *, *, #38, .T. ) ;
#314 = VECTOR ( 'NONE', #113, 1000.000000000000000 ) ;
#315 = CARTESIAN_POINT ( 'NONE',  ( 0.0000000000000000000, 0.0000000000000000000, 10.00000000000000000 ) ) ;
#316 = FACE_OUTER_BOUND ( 'NONE', #1, .T. ) ;
#317 = CARTESIAN_POINT ( 'NONE',  ( 10.00000000000000000, 0.0000000000000000000, 10.00000000000000000 ) ) ;
#318 = DIRECTION ( 'NONE',  ( 1.000000000000000000, 0.0000000000000000000, 0.0000000000000000000 ) ) ;
#319 = DIRECTION ( 'NONE',  ( -1.000000000000000000, 0.0000000000000000000, 0.0000000000000000000 ) ) ;
#320 = DIRECTION ( 'NONE',  ( 0.0000000000000000000, 0.0000000000000000000, 1.000000000000000000 ) ) ;
#321 = CC_DESIGN_PERSON_AND_ORGANIZATION_ASSIGNMENT ( #70, #55, ( #304 ) ) ;
ENDSEC;
END-ISO-10303-21;
