ISO-10303-21;
HEADER;
FILE_DESCRIPTION (( 'STEP AP203' ),
    '1' );
FILE_NAME ('Web Model 19841_19887.step',
    '2022-04-06T15:18:56',
    ( 'WC' ),
    ( 'Windows Central' ),
    'SwSTEP 2.0',
    'SolidWorks 2021',
    '' );
FILE_SCHEMA (( 'CONFIG_CONTROL_DESIGN' ));
ENDSEC;

DATA;
#1 = APPROVAL_DATE_TIME ( #76, #106 ) ;
#2 = PERSON_AND_ORGANIZATION ( #89, #146 ) ;
#3 = CIRCLE ( 'NONE', #126, 25.00000000000000000 ) ;
#4 = SECURITY_CLASSIFICATION_LEVEL ( 'unclassified' ) ;
#5 = ADVANCED_FACE ( 'NONE', ( #54 ), #40, .T. ) ;
#6 = CC_DESIGN_PERSON_AND_ORGANIZATION_ASSIGNMENT ( #47, #16, ( #80 ) ) ;
#7 = VECTOR ( 'NONE', #140, 1000.000000000000000 ) ;
#8 = DIRECTION ( 'NONE',  ( 1.000000000000000000, 0.000000000000000000, 0.000000000000000000 ) ) ;
#9 = APPROVAL_STATUS ( 'not_yet_approved' ) ;
#10 = ORIENTED_EDGE ( 'NONE', *, *, #19, .T. ) ;
#11 = VERTEX_POINT ( 'NONE', #43 ) ;
#12 = DIRECTION ( 'NONE',  ( 0.000000000000000000, 0.000000000000000000, 1.000000000000000000 ) ) ;
#13 = CARTESIAN_POINT ( 'NONE',  ( 25.00000000000000000, 3.061616997868383043E-15, 0.000000000000000000 ) ) ;
#14 = COORDINATED_UNIVERSAL_TIME_OFFSET ( 5, 0, .BEHIND. ) ;
#15 = SECURITY_CLASSIFICATION ( '', '', #4 ) ;
#16 = PERSON_AND_ORGANIZATION_ROLE ( 'design_owner' ) ;
#17 = COORDINATED_UNIVERSAL_TIME_OFFSET ( 5, 0, .BEHIND. ) ;
#18 = PRODUCT_DEFINITION ( 'UNKNOWN', '', #107, #21 ) ;
#19 = EDGE_CURVE ( 'NONE', #148, #68, #3, .T. ) ;
#20 = LOCAL_TIME ( 11, 18, 56.00000000000000000, #112 ) ;
#21 = DESIGN_CONTEXT ( 'detailed design', #67, 'design' ) ;
#22 = AXIS2_PLACEMENT_3D ( 'NONE', #161, #25, #71 ) ;
#23 = ADVANCED_FACE ( 'NONE', ( #135 ), #108, .F. ) ;
#24 = CALENDAR_DATE ( 2022, 6, 4 ) ;
#25 = DIRECTION ( 'NONE',  ( 0.000000000000000000, 0.000000000000000000, 1.000000000000000000 ) ) ;
#26 = AXIS2_PLACEMENT_3D ( 'NONE', #137, #147, #84 ) ;
#27 = CYLINDRICAL_SURFACE ( 'NONE', #93, 25.00000000000000000 ) ;
#28 = CARTESIAN_POINT ( 'NONE',  ( 0.000000000000000000, 0.000000000000000000, 3.000000000000000000 ) ) ;
#29 = PERSON_AND_ORGANIZATION ( #89, #146 ) ;
#30 = CC_DESIGN_APPROVAL ( #75, ( #107 ) ) ;
#31 = COORDINATED_UNIVERSAL_TIME_OFFSET ( 5, 0, .BEHIND. ) ;
#32 = CARTESIAN_POINT ( 'NONE',  ( 0.000000000000000000, 0.000000000000000000, 0.000000000000000000 ) ) ;
#33 = EDGE_LOOP ( 'NONE', ( #171, #91 ) ) ;
#34 = AXIS2_PLACEMENT_3D ( 'NONE', #28, #174, #110 ) ;
#35 = LOCAL_TIME ( 11, 18, 56.00000000000000000, #17 ) ;
#36 = CC_DESIGN_SECURITY_CLASSIFICATION ( #15, ( #107 ) ) ;
#37 = ORIENTED_EDGE ( 'NONE', *, *, #105, .T. ) ;
#38 = ORIENTED_EDGE ( 'NONE', *, *, #50, .F. ) ;
#39 = CC_DESIGN_PERSON_AND_ORGANIZATION_ASSIGNMENT ( #60, #130, ( #107 ) ) ;
#40 = PLANE ( 'NONE',  #22 ) ;
#41 = DIRECTION ( 'NONE',  ( -0.000000000000000000, -0.000000000000000000, -1.000000000000000000 ) ) ;
#42 = AXIS2_PLACEMENT_3D ( 'NONE', #69, #172, #56 ) ;
#43 = CARTESIAN_POINT ( 'NONE',  ( -25.00000000000000000, 0.000000000000000000, 3.000000000000000000 ) ) ;
#44 = CALENDAR_DATE ( 2022, 6, 4 ) ;
#45 = CALENDAR_DATE ( 2022, 6, 4 ) ;
#46 = DATE_TIME_ROLE ( 'creation_date' ) ;
#47 = PERSON_AND_ORGANIZATION ( #89, #146 ) ;
#48 = CIRCLE ( 'NONE', #145, 25.00000000000000000 ) ;
#49 = APPROVAL_PERSON_ORGANIZATION ( #113, #120, #81 ) ;
#50 = EDGE_CURVE ( 'NONE', #68, #148, #162, .T. ) ;
#51 = DIRECTION ( 'NONE',  ( 1.000000000000000000, 0.000000000000000000, 0.000000000000000000 ) ) ;
#52 = CC_DESIGN_PERSON_AND_ORGANIZATION_ASSIGNMENT ( #103, #59, ( #18 ) ) ;
#53 =( NAMED_UNIT ( * ) PLANE_ANGLE_UNIT ( ) SI_UNIT ( $, .RADIAN. ) );
#54 = FACE_OUTER_BOUND ( 'NONE', #33, .T. ) ;
#55 = EDGE_LOOP ( 'NONE', ( #160, #82, #10, #139 ) ) ;
#56 = DIRECTION ( 'NONE',  ( 1.000000000000000000, 0.000000000000000000, 0.000000000000000000 ) ) ;
#57 = DIRECTION ( 'NONE',  ( 1.000000000000000000, 0.000000000000000000, -0.000000000000000000 ) ) ;
#58 = APPLICATION_CONTEXT ( 'configuration controlled 3d designs of mechanical parts and assemblies' ) ;
#59 = PERSON_AND_ORGANIZATION_ROLE ( 'creator' ) ;
#60 = PERSON_AND_ORGANIZATION ( #89, #146 ) ;
#61 = VECTOR ( 'NONE', #41, 1000.000000000000000 ) ;
#62 = PERSON_AND_ORGANIZATION ( #89, #146 ) ;
#63 = ORIENTED_EDGE ( 'NONE', *, *, #50, .T. ) ;
#64 = LOCAL_TIME ( 11, 18, 56.00000000000000000, #31 ) ;
#65 = PRODUCT_DEFINITION_SHAPE ( 'NONE', 'NONE',  #18 ) ;
#66 = CARTESIAN_POINT ( 'NONE',  ( 25.00000000000000000, 3.061616997868383043E-15, 3.000000000000000000 ) ) ;
#67 = APPLICATION_CONTEXT ( 'configuration controlled 3d designs of mechanical parts and assemblies' ) ;
#68 = VERTEX_POINT ( 'NONE', #70 ) ;
#69 = CARTESIAN_POINT ( 'NONE',  ( 0.000000000000000000, 0.000000000000000000, 3.000000000000000000 ) ) ;
#70 = CARTESIAN_POINT ( 'NONE',  ( -25.00000000000000000, 0.000000000000000000, 0.000000000000000000 ) ) ;
#71 = DIRECTION ( 'NONE',  ( 1.000000000000000000, 0.000000000000000000, -0.000000000000000000 ) ) ;
#72 = APPROVAL_PERSON_ORGANIZATION ( #152, #106, #144 ) ;
#73 = APPROVAL_STATUS ( 'not_yet_approved' ) ;
#74 = MECHANICAL_CONTEXT ( 'NONE', #58, 'mechanical' ) ;
#75 = APPROVAL ( #77, 'UNSPECIFIED' ) ;
#76 = DATE_AND_TIME ( #128, #35 ) ;
#77 = APPROVAL_STATUS ( 'not_yet_approved' ) ;
#78 = CLOSED_SHELL ( 'NONE', ( #165, #85, #5, #23 ) ) ;
#79 = CC_DESIGN_DATE_AND_TIME_ASSIGNMENT ( #129, #46, ( #18 ) ) ;
#80 = PRODUCT ( 'Web Model 19841_19887', 'Web Model 19841_19887', '', ( #74 ) ) ;
#81 = APPROVAL_ROLE ( '' ) ;
#82 = ORIENTED_EDGE ( 'NONE', *, *, #136, .T. ) ;
#83 = AXIS2_PLACEMENT_3D ( 'NONE', #32, #87, #92 ) ;
#84 = DIRECTION ( 'NONE',  ( 1.000000000000000000, 0.000000000000000000, 0.000000000000000000 ) ) ;
#85 = ADVANCED_FACE ( 'NONE', ( #109 ), #27, .T. ) ;
#86 = LINE ( 'NONE', #66, #7 ) ;
#87 = DIRECTION ( 'NONE',  ( 0.000000000000000000, 0.000000000000000000, 1.000000000000000000 ) ) ;
#88 = PERSON_AND_ORGANIZATION_ROLE ( 'classification_officer' ) ;
#89 = PERSON ( 'UNSPECIFIED', 'UNSPECIFIED', 'UNSPECIFIED', ('UNSPECIFIED'), ('UNSPECIFIED'), ('UNSPECIFIED') ) ;
#90 = DATE_TIME_ROLE ( 'classification_date' ) ;
#91 = ORIENTED_EDGE ( 'NONE', *, *, #173, .T. ) ;
#92 = DIRECTION ( 'NONE',  ( 1.000000000000000000, 0.000000000000000000, 0.000000000000000000 ) ) ;
#93 = AXIS2_PLACEMENT_3D ( 'NONE', #133, #101, #123 ) ;
#94 = EDGE_CURVE ( 'NONE', #11, #156, #97, .T. ) ;
#95 =( GEOMETRIC_REPRESENTATION_CONTEXT ( 3 ) GLOBAL_UNCERTAINTY_ASSIGNED_CONTEXT ( ( #158 ) ) GLOBAL_UNIT_ASSIGNED_CONTEXT ( ( #98, #53, #159 ) ) REPRESENTATION_CONTEXT ( 'NONE', 'WORKASPACE' ) );
#96 = COORDINATED_UNIVERSAL_TIME_OFFSET ( 5, 0, .BEHIND. ) ;
#97 = CIRCLE ( 'NONE', #42, 25.00000000000000000 ) ;
#98 =( LENGTH_UNIT ( ) NAMED_UNIT ( * ) SI_UNIT ( .MILLI., .METRE. ) );
#99 = EDGE_LOOP ( 'NONE', ( #38, #114 ) ) ;
#100 = CC_DESIGN_PERSON_AND_ORGANIZATION_ASSIGNMENT ( #62, #88, ( #15 ) ) ;
#101 = DIRECTION ( 'NONE',  ( -0.000000000000000000, -0.000000000000000000, -1.000000000000000000 ) ) ;
#102 = LINE ( 'NONE', #121, #61 ) ;
#103 = PERSON_AND_ORGANIZATION ( #89, #146 ) ;
#104 = ORIENTED_EDGE ( 'NONE', *, *, #136, .F. ) ;
#105 = EDGE_CURVE ( 'NONE', #11, #68, #102, .T. ) ;
#106 = APPROVAL ( #73, 'UNSPECIFIED' ) ;
#107 = PRODUCT_DEFINITION_FORMATION_WITH_SPECIFIED_SOURCE ( 'ANY', '', #80, .NOT_KNOWN. ) ;
#108 = PLANE ( 'NONE',  #157 ) ;
#109 = FACE_OUTER_BOUND ( 'NONE', #151, .T. ) ;
#110 = DIRECTION ( 'NONE',  ( -1.000000000000000000, 0.000000000000000000, 0.000000000000000000 ) ) ;
#111 = DATE_AND_TIME ( #44, #64 ) ;
#112 = COORDINATED_UNIVERSAL_TIME_OFFSET ( 5, 0, .BEHIND. ) ;
#113 = PERSON_AND_ORGANIZATION ( #89, #146 ) ;
#114 = ORIENTED_EDGE ( 'NONE', *, *, #19, .F. ) ;
#115 = CALENDAR_DATE ( 2022, 6, 4 ) ;
#116 = CC_DESIGN_APPROVAL ( #120, ( #15 ) ) ;
#117 = ADVANCED_BREP_SHAPE_REPRESENTATION ( 'Web Model 19841_19887', ( #124, #83 ), #95 ) ;
#118 = DIRECTION ( 'NONE',  ( 0.000000000000000000, 0.000000000000000000, 1.000000000000000000 ) ) ;
#119 = DIRECTION ( 'NONE',  ( 0.000000000000000000, 0.000000000000000000, 1.000000000000000000 ) ) ;
#120 = APPROVAL ( #9, 'UNSPECIFIED' ) ;
#121 = CARTESIAN_POINT ( 'NONE',  ( -25.00000000000000000, 0.000000000000000000, 3.000000000000000000 ) ) ;
#122 = APPROVAL_DATE_TIME ( #132, #120 ) ;
#123 = DIRECTION ( 'NONE',  ( -1.000000000000000000, 0.000000000000000000, 0.000000000000000000 ) ) ;
#124 = MANIFOLD_SOLID_BREP ( 'Boss-Extrude1', #78 ) ;
#125 = FACE_OUTER_BOUND ( 'NONE', #55, .T. ) ;
#126 = AXIS2_PLACEMENT_3D ( 'NONE', #149, #119, #8 ) ;
#127 = APPROVAL_DATE_TIME ( #111, #75 ) ;
#128 = CALENDAR_DATE ( 2022, 6, 4 ) ;
#129 = DATE_AND_TIME ( #45, #168 ) ;
#130 = PERSON_AND_ORGANIZATION_ROLE ( 'design_supplier' ) ;
#131 = LOCAL_TIME ( 11, 18, 56.00000000000000000, #96 ) ;
#132 = DATE_AND_TIME ( #24, #131 ) ;
#133 = CARTESIAN_POINT ( 'NONE',  ( 0.000000000000000000, 0.000000000000000000, 3.000000000000000000 ) ) ;
#134 = SHAPE_DEFINITION_REPRESENTATION ( #65, #117 ) ;
#135 = FACE_OUTER_BOUND ( 'NONE', #99, .T. ) ;
#136 = EDGE_CURVE ( 'NONE', #156, #148, #86, .T. ) ;
#137 = CARTESIAN_POINT ( 'NONE',  ( 0.000000000000000000, 0.000000000000000000, 0.000000000000000000 ) ) ;
#138 = CARTESIAN_POINT ( 'NONE',  ( 0.000000000000000000, 0.000000000000000000, 0.000000000000000000 ) ) ;
#139 = ORIENTED_EDGE ( 'NONE', *, *, #105, .F. ) ;
#140 = DIRECTION ( 'NONE',  ( -0.000000000000000000, -0.000000000000000000, -1.000000000000000000 ) ) ;
#141 = PRODUCT_RELATED_PRODUCT_CATEGORY ( 'detail', '', ( #80 ) ) ;
#142 = APPROVAL_ROLE ( '' ) ;
#143 = ORIENTED_EDGE ( 'NONE', *, *, #94, .F. ) ;
#144 = APPROVAL_ROLE ( '' ) ;
#145 = AXIS2_PLACEMENT_3D ( 'NONE', #163, #118, #51 ) ;
#146 = ORGANIZATION ( 'UNSPECIFIED', 'UNSPECIFIED', '' ) ;
#147 = DIRECTION ( 'NONE',  ( 0.000000000000000000, 0.000000000000000000, 1.000000000000000000 ) ) ;
#148 = VERTEX_POINT ( 'NONE', #13 ) ;
#149 = CARTESIAN_POINT ( 'NONE',  ( 0.000000000000000000, 0.000000000000000000, 0.000000000000000000 ) ) ;
#150 = CC_DESIGN_PERSON_AND_ORGANIZATION_ASSIGNMENT ( #2, #166, ( #107 ) ) ;
#151 = EDGE_LOOP ( 'NONE', ( #104, #143, #37, #63 ) ) ;
#152 = PERSON_AND_ORGANIZATION ( #89, #146 ) ;
#153 = CC_DESIGN_APPROVAL ( #106, ( #18 ) ) ;
#154 = APPLICATION_PROTOCOL_DEFINITION ( 'international standard', 'config_control_design', 1994, #67 ) ;
#155 = CC_DESIGN_DATE_AND_TIME_ASSIGNMENT ( #164, #90, ( #15 ) ) ;
#156 = VERTEX_POINT ( 'NONE', #169 ) ;
#157 = AXIS2_PLACEMENT_3D ( 'NONE', #138, #12, #57 ) ;
#158 = UNCERTAINTY_MEASURE_WITH_UNIT (LENGTH_MEASURE( 1.000000000000000082E-05 ), #98, 'distance_accuracy_value', 'NONE');
#159 =( NAMED_UNIT ( * ) SI_UNIT ( $, .STERADIAN. ) SOLID_ANGLE_UNIT ( ) );
#160 = ORIENTED_EDGE ( 'NONE', *, *, #173, .F. ) ;
#161 = CARTESIAN_POINT ( 'NONE',  ( 0.000000000000000000, 0.000000000000000000, 3.000000000000000000 ) ) ;
#162 = CIRCLE ( 'NONE', #26, 25.00000000000000000 ) ;
#163 = CARTESIAN_POINT ( 'NONE',  ( 0.000000000000000000, 0.000000000000000000, 3.000000000000000000 ) ) ;
#164 = DATE_AND_TIME ( #115, #20 ) ;
#165 = ADVANCED_FACE ( 'NONE', ( #125 ), #170, .T. ) ;
#166 = PERSON_AND_ORGANIZATION_ROLE ( 'creator' ) ;
#167 = APPROVAL_PERSON_ORGANIZATION ( #29, #75, #142 ) ;
#168 = LOCAL_TIME ( 11, 18, 56.00000000000000000, #14 ) ;
#169 = CARTESIAN_POINT ( 'NONE',  ( 25.00000000000000000, 3.061616997868383043E-15, 3.000000000000000000 ) ) ;
#170 = CYLINDRICAL_SURFACE ( 'NONE', #34, 25.00000000000000000 ) ;
#171 = ORIENTED_EDGE ( 'NONE', *, *, #94, .T. ) ;
#172 = DIRECTION ( 'NONE',  ( 0.000000000000000000, 0.000000000000000000, 1.000000000000000000 ) ) ;
#173 = EDGE_CURVE ( 'NONE', #156, #11, #48, .T. ) ;
#174 = DIRECTION ( 'NONE',  ( -0.000000000000000000, -0.000000000000000000, -1.000000000000000000 ) ) ;
#175 = APPLICATION_PROTOCOL_DEFINITION ( 'international standard', 'config_control_design', 1994, #58 ) ;
ENDSEC;
END-ISO-10303-21;
