ISO-10303-21;
HEADER;
FILE_DESCRIPTION (( 'STEP AP203' ),
    '1' );
FILE_NAME ('Web Model 45074_13288.step',
    '2020-11-03T21:47:44',
    ( '' ),
    ( '' ),
    'SwSTEP 2.0',
    'SolidWorks 2018',
    '' );
FILE_SCHEMA (( 'CONFIG_CONTROL_DESIGN' ));
ENDSEC;

DATA;
#1 = APPROVAL_DATE_TIME ( #164, #134 ) ;
#2 =( LENGTH_UNIT ( ) NAMED_UNIT ( * ) SI_UNIT ( .MILLI., .METRE. ) );
#3 = EDGE_CURVE ( 'NONE', #86, #149, #5, .T. ) ;
#4 = APPLICATION_CONTEXT ( 'configuration controlled 3d designs of mechanical parts and assemblies' ) ;
#5 = LINE ( 'NONE', #32, #138 ) ;
#6 = APPROVAL_DATE_TIME ( #77, #120 ) ;
#7 = APPROVAL_PERSON_ORGANIZATION ( #42, #20, #84 ) ;
#8 = ADVANCED_FACE ( 'NONE', ( #97 ), #34, .T. ) ;
#9 = DIRECTION ( 'NONE',  ( 0.0000000000000000000, 0.0000000000000000000, 1.000000000000000000 ) ) ;
#10 = EDGE_CURVE ( 'NONE', #149, #156, #65, .T. ) ;
#11 = CARTESIAN_POINT ( 'NONE',  ( 0.0000000000000000000, 0.0000000000000000000, 0.0000000000000000000 ) ) ;
#12 = DIRECTION ( 'NONE',  ( 0.0000000000000000000, 0.0000000000000000000, 1.000000000000000000 ) ) ;
#13 = ORIENTED_EDGE ( 'NONE', *, *, #125, .T. ) ;
#14 = APPROVAL_ROLE ( '' ) ;
#15 = EDGE_CURVE ( 'NONE', #113, #86, #171, .T. ) ;
#16 = APPLICATION_PROTOCOL_DEFINITION ( 'international standard', 'config_control_design', 1994, #4 ) ;
#17 = DIRECTION ( 'NONE',  ( 1.000000000000000000, 0.0000000000000000000, 0.0000000000000000000 ) ) ;
#18 = CC_DESIGN_DATE_AND_TIME_ASSIGNMENT ( #106, #62, ( #168 ) ) ;
#19 = COORDINATED_UNIVERSAL_TIME_OFFSET ( 5, 0, .BEHIND. ) ;
#20 = APPROVAL ( #117, 'UNSPECIFIED' ) ;
#21 = ORGANIZATION ( 'UNSPECIFIED', 'UNSPECIFIED', '' ) ;
#22 = ADVANCED_FACE ( 'NONE', ( #140 ), #122, .T. ) ;
#23 = COORDINATED_UNIVERSAL_TIME_OFFSET ( 5, 0, .BEHIND. ) ;
#24 = COORDINATED_UNIVERSAL_TIME_OFFSET ( 5, 0, .BEHIND. ) ;
#25 = DIRECTION ( 'NONE',  ( 1.000000000000000000, 0.0000000000000000000, 0.0000000000000000000 ) ) ;
#26 = PLANE ( 'NONE',  #136 ) ;
#27 = CC_DESIGN_PERSON_AND_ORGANIZATION_ASSIGNMENT ( #58, #39, ( #153 ) ) ;
#28 = CARTESIAN_POINT ( 'NONE',  ( 5.000000000000000000, 0.0000000000000000000, -2.000000000000000000 ) ) ;
#29 = PERSON_AND_ORGANIZATION ( #131, #21 ) ;
#30 = AXIS2_PLACEMENT_3D ( 'NONE', #99, #73, #17 ) ;
#31 = ORIENTED_EDGE ( 'NONE', *, *, #3, .T. ) ;
#32 = CARTESIAN_POINT ( 'NONE',  ( -5.000000000000000000, 6.123233995736766282E-16, -2.000000000000000000 ) ) ;
#33 = PERSON_AND_ORGANIZATION ( #131, #21 ) ;
#34 = CYLINDRICAL_SURFACE ( 'NONE', #173, 5.000000000000000000 ) ;
#35 = PRODUCT_RELATED_PRODUCT_CATEGORY ( 'detail', '', ( #128 ) ) ;
#36 = PERSON_AND_ORGANIZATION ( #131, #21 ) ;
#37 = ORIENTED_EDGE ( 'NONE', *, *, #162, .T. ) ;
#38 = CARTESIAN_POINT ( 'NONE',  ( 0.0000000000000000000, 0.0000000000000000000, 0.0000000000000000000 ) ) ;
#39 = PERSON_AND_ORGANIZATION_ROLE ( 'creator' ) ;
#40 = DIRECTION ( 'NONE',  ( 0.0000000000000000000, 0.0000000000000000000, 1.000000000000000000 ) ) ;
#41 = CARTESIAN_POINT ( 'NONE',  ( 0.0000000000000000000, 0.0000000000000000000, 0.0000000000000000000 ) ) ;
#42 = PERSON_AND_ORGANIZATION ( #131, #21 ) ;
#43 = LOCAL_TIME ( 16, 47, 44.00000000000000000, #19 ) ;
#44 = CALENDAR_DATE ( 2020, 3, 11 ) ;
#45 = DIRECTION ( 'NONE',  ( 1.000000000000000000, 0.0000000000000000000, 0.0000000000000000000 ) ) ;
#46 = EDGE_LOOP ( 'NONE', ( #109, #13, #37, #95 ) ) ;
#47 = AXIS2_PLACEMENT_3D ( 'NONE', #174, #92, #82 ) ;
#48 = DIRECTION ( 'NONE',  ( 0.0000000000000000000, 0.0000000000000000000, 1.000000000000000000 ) ) ;
#49 = CARTESIAN_POINT ( 'NONE',  ( 0.0000000000000000000, 0.0000000000000000000, -2.000000000000000000 ) ) ;
#50 = DIRECTION ( 'NONE',  ( 1.000000000000000000, 0.0000000000000000000, -0.0000000000000000000 ) ) ;
#51 = PERSON_AND_ORGANIZATION_ROLE ( 'design_supplier' ) ;
#52 = DIRECTION ( 'NONE',  ( 0.0000000000000000000, 0.0000000000000000000, 1.000000000000000000 ) ) ;
#53 = FACE_OUTER_BOUND ( 'NONE', #114, .T. ) ;
#54 = PERSON_AND_ORGANIZATION ( #131, #21 ) ;
#55 = CC_DESIGN_APPROVAL ( #120, ( #66 ) ) ;
#56 = CALENDAR_DATE ( 2020, 3, 11 ) ;
#57 = COORDINATED_UNIVERSAL_TIME_OFFSET ( 5, 0, .BEHIND. ) ;
#58 = PERSON_AND_ORGANIZATION ( #131, #21 ) ;
#59 = DIRECTION ( 'NONE',  ( 0.0000000000000000000, 0.0000000000000000000, 1.000000000000000000 ) ) ;
#60 = CC_DESIGN_PERSON_AND_ORGANIZATION_ASSIGNMENT ( #54, #144, ( #66 ) ) ;
#61 = APPROVAL_DATE_TIME ( #172, #20 ) ;
#62 = DATE_TIME_ROLE ( 'creation_date' ) ;
#63 = DATE_AND_TIME ( #44, #161 ) ;
#64 = MECHANICAL_CONTEXT ( 'NONE', #118, 'mechanical' ) ;
#65 = CIRCLE ( 'NONE', #76, 5.000000000000000000 ) ;
#66 = SECURITY_CLASSIFICATION ( '', '', #157 ) ;
#67 = CC_DESIGN_SECURITY_CLASSIFICATION ( #66, ( #153 ) ) ;
#68 = CIRCLE ( 'NONE', #100, 5.000000000000000000 ) ;
#69 = CARTESIAN_POINT ( 'NONE',  ( 0.0000000000000000000, 0.0000000000000000000, -2.000000000000000000 ) ) ;
#70 = AXIS2_PLACEMENT_3D ( 'NONE', #88, #48, #25 ) ;
#71 = APPROVAL_STATUS ( 'not_yet_approved' ) ;
#72 = DIRECTION ( 'NONE',  ( 1.000000000000000000, 0.0000000000000000000, 0.0000000000000000000 ) ) ;
#73 = DIRECTION ( 'NONE',  ( 0.0000000000000000000, 0.0000000000000000000, 1.000000000000000000 ) ) ;
#74 = DIRECTION ( 'NONE',  ( 0.0000000000000000000, 0.0000000000000000000, 1.000000000000000000 ) ) ;
#75 = ORIENTED_EDGE ( 'NONE', *, *, #129, .F. ) ;
#76 = AXIS2_PLACEMENT_3D ( 'NONE', #11, #12, #91 ) ;
#77 = DATE_AND_TIME ( #83, #126 ) ;
#78 = ORIENTED_EDGE ( 'NONE', *, *, #129, .T. ) ;
#79 = PERSON_AND_ORGANIZATION_ROLE ( 'design_owner' ) ;
#80 = LOCAL_TIME ( 16, 47, 44.00000000000000000, #23 ) ;
#81 =( NAMED_UNIT ( * ) PLANE_ANGLE_UNIT ( ) SI_UNIT ( $, .RADIAN. ) );
#82 = DIRECTION ( 'NONE',  ( 1.000000000000000000, 0.0000000000000000000, 0.0000000000000000000 ) ) ;
#83 = CALENDAR_DATE ( 2020, 3, 11 ) ;
#84 = APPROVAL_ROLE ( '' ) ;
#85 = ORIENTED_EDGE ( 'NONE', *, *, #125, .F. ) ;
#86 = VERTEX_POINT ( 'NONE', #94 ) ;
#87 = COORDINATED_UNIVERSAL_TIME_OFFSET ( 5, 0, .BEHIND. ) ;
#88 = CARTESIAN_POINT ( 'NONE',  ( 0.0000000000000000000, 0.0000000000000000000, -2.000000000000000000 ) ) ;
#89 = APPROVAL_PERSON_ORGANIZATION ( #169, #134, #150 ) ;
#90 = LINE ( 'NONE', #28, #154 ) ;
#91 = DIRECTION ( 'NONE',  ( 1.000000000000000000, 0.0000000000000000000, 0.0000000000000000000 ) ) ;
#92 = DIRECTION ( 'NONE',  ( 0.0000000000000000000, 0.0000000000000000000, 1.000000000000000000 ) ) ;
#93 = CC_DESIGN_PERSON_AND_ORGANIZATION_ASSIGNMENT ( #107, #51, ( #153 ) ) ;
#94 = CARTESIAN_POINT ( 'NONE',  ( -5.000000000000000000, 6.123233995736766282E-16, -2.000000000000000000 ) ) ;
#95 = ORIENTED_EDGE ( 'NONE', *, *, #10, .F. ) ;
#96 = APPLICATION_PROTOCOL_DEFINITION ( 'international standard', 'config_control_design', 1994, #118 ) ;
#97 = FACE_OUTER_BOUND ( 'NONE', #143, .T. ) ;
#98 = APPROVAL_STATUS ( 'not_yet_approved' ) ;
#99 = CARTESIAN_POINT ( 'NONE',  ( 0.0000000000000000000, 0.0000000000000000000, 0.0000000000000000000 ) ) ;
#100 = AXIS2_PLACEMENT_3D ( 'NONE', #158, #74, #72 ) ;
#101 = DIRECTION ( 'NONE',  ( 1.000000000000000000, 0.0000000000000000000, -0.0000000000000000000 ) ) ;
#102 = CC_DESIGN_PERSON_AND_ORGANIZATION_ASSIGNMENT ( #29, #160, ( #168 ) ) ;
#103 = LOCAL_TIME ( 16, 47, 44.00000000000000000, #57 ) ;
#104 =( GEOMETRIC_REPRESENTATION_CONTEXT ( 3 ) GLOBAL_UNCERTAINTY_ASSIGNED_CONTEXT ( ( #127 ) ) GLOBAL_UNIT_ASSIGNED_CONTEXT ( ( #2, #81, #147 ) ) REPRESENTATION_CONTEXT ( 'NONE', 'WORKASPACE' ) );
#105 = DESIGN_CONTEXT ( 'detailed design', #4, 'design' ) ;
#106 = DATE_AND_TIME ( #133, #43 ) ;
#107 = PERSON_AND_ORGANIZATION ( #131, #21 ) ;
#108 = CC_DESIGN_DATE_AND_TIME_ASSIGNMENT ( #63, #159, ( #66 ) ) ;
#109 = ORIENTED_EDGE ( 'NONE', *, *, #3, .F. ) ;
#110 = ORIENTED_EDGE ( 'NONE', *, *, #15, .F. ) ;
#111 = APPROVAL_PERSON_ORGANIZATION ( #36, #120, #14 ) ;
#112 = MANIFOLD_SOLID_BREP ( 'Extrude1', #170 ) ;
#113 = VERTEX_POINT ( 'NONE', #145 ) ;
#114 = EDGE_LOOP ( 'NONE', ( #78, #167 ) ) ;
#115 = CARTESIAN_POINT ( 'NONE',  ( 5.000000000000000000, 0.0000000000000000000, 0.0000000000000000000 ) ) ;
#116 = AXIS2_PLACEMENT_3D ( 'NONE', #49, #40, #50 ) ;
#117 = APPROVAL_STATUS ( 'not_yet_approved' ) ;
#118 = APPLICATION_CONTEXT ( 'configuration controlled 3d designs of mechanical parts and assemblies' ) ;
#119 = ORIENTED_EDGE ( 'NONE', *, *, #15, .T. ) ;
#120 = APPROVAL ( #71, 'UNSPECIFIED' ) ;
#121 = CC_DESIGN_PERSON_AND_ORGANIZATION_ASSIGNMENT ( #33, #79, ( #128 ) ) ;
#122 = CYLINDRICAL_SURFACE ( 'NONE', #70, 5.000000000000000000 ) ;
#123 = DIRECTION ( 'NONE',  ( 0.0000000000000000000, 0.0000000000000000000, 1.000000000000000000 ) ) ;
#124 = FACE_OUTER_BOUND ( 'NONE', #148, .T. ) ;
#125 = EDGE_CURVE ( 'NONE', #86, #113, #68, .T. ) ;
#126 = LOCAL_TIME ( 16, 47, 44.00000000000000000, #87 ) ;
#127 = UNCERTAINTY_MEASURE_WITH_UNIT (LENGTH_MEASURE( 1.000000000000000082E-05 ), #2, 'distance_accuracy_value', 'NONE');
#128 = PRODUCT ( 'Web Model 45074_13288', 'Web Model 45074_13288', '', ( #64 ) ) ;
#129 = EDGE_CURVE ( 'NONE', #156, #149, #141, .T. ) ;
#130 = CARTESIAN_POINT ( 'NONE',  ( -5.000000000000000000, 6.123233995736766282E-16, 0.0000000000000000000 ) ) ;
#131 = PERSON ( 'UNSPECIFIED', 'UNSPECIFIED', 'UNSPECIFIED', ('UNSPECIFIED'), ('UNSPECIFIED'), ('UNSPECIFIED') ) ;
#132 = DIRECTION ( 'NONE',  ( 1.000000000000000000, 0.0000000000000000000, 0.0000000000000000000 ) ) ;
#133 = CALENDAR_DATE ( 2020, 3, 11 ) ;
#134 = APPROVAL ( #98, 'UNSPECIFIED' ) ;
#135 = DIRECTION ( 'NONE',  ( 0.0000000000000000000, 0.0000000000000000000, 1.000000000000000000 ) ) ;
#136 = AXIS2_PLACEMENT_3D ( 'NONE', #38, #52, #101 ) ;
#137 = AXIS2_PLACEMENT_3D ( 'NONE', #41, #59, #132 ) ;
#138 = VECTOR ( 'NONE', #123, 1000.000000000000000 ) ;
#139 = CALENDAR_DATE ( 2020, 3, 11 ) ;
#140 = FACE_OUTER_BOUND ( 'NONE', #46, .T. ) ;
#141 = CIRCLE ( 'NONE', #30, 5.000000000000000000 ) ;
#142 = CC_DESIGN_APPROVAL ( #20, ( #153 ) ) ;
#143 = EDGE_LOOP ( 'NONE', ( #119, #31, #75, #165 ) ) ;
#144 = PERSON_AND_ORGANIZATION_ROLE ( 'classification_officer' ) ;
#145 = CARTESIAN_POINT ( 'NONE',  ( 5.000000000000000000, 0.0000000000000000000, -2.000000000000000000 ) ) ;
#146 = CC_DESIGN_APPROVAL ( #134, ( #168 ) ) ;
#147 =( NAMED_UNIT ( * ) SI_UNIT ( $, .STERADIAN. ) SOLID_ANGLE_UNIT ( ) );
#148 = EDGE_LOOP ( 'NONE', ( #110, #85 ) ) ;
#149 = VERTEX_POINT ( 'NONE', #130 ) ;
#150 = APPROVAL_ROLE ( '' ) ;
#151 = PRODUCT_DEFINITION_SHAPE ( 'NONE', 'NONE',  #168 ) ;
#152 = ADVANCED_BREP_SHAPE_REPRESENTATION ( 'Web Model 45074_13288', ( #112, #137 ), #104 ) ;
#153 = PRODUCT_DEFINITION_FORMATION_WITH_SPECIFIED_SOURCE ( 'ANY', '', #128, .NOT_KNOWN. ) ;
#154 = VECTOR ( 'NONE', #135, 1000.000000000000000 ) ;
#155 = ADVANCED_FACE ( 'NONE', ( #124 ), #175, .F. ) ;
#156 = VERTEX_POINT ( 'NONE', #115 ) ;
#157 = SECURITY_CLASSIFICATION_LEVEL ( 'unclassified' ) ;
#158 = CARTESIAN_POINT ( 'NONE',  ( 0.0000000000000000000, 0.0000000000000000000, -2.000000000000000000 ) ) ;
#159 = DATE_TIME_ROLE ( 'classification_date' ) ;
#160 = PERSON_AND_ORGANIZATION_ROLE ( 'creator' ) ;
#161 = LOCAL_TIME ( 16, 47, 44.00000000000000000, #24 ) ;
#162 = EDGE_CURVE ( 'NONE', #113, #156, #90, .T. ) ;
#163 = SHAPE_DEFINITION_REPRESENTATION ( #151, #152 ) ;
#164 = DATE_AND_TIME ( #56, #80 ) ;
#165 = ORIENTED_EDGE ( 'NONE', *, *, #162, .F. ) ;
#166 = ADVANCED_FACE ( 'NONE', ( #53 ), #26, .T. ) ;
#167 = ORIENTED_EDGE ( 'NONE', *, *, #10, .T. ) ;
#168 = PRODUCT_DEFINITION ( 'UNKNOWN', '', #153, #105 ) ;
#169 = PERSON_AND_ORGANIZATION ( #131, #21 ) ;
#170 = CLOSED_SHELL ( 'NONE', ( #8, #22, #155, #166 ) ) ;
#171 = CIRCLE ( 'NONE', #47, 5.000000000000000000 ) ;
#172 = DATE_AND_TIME ( #139, #103 ) ;
#173 = AXIS2_PLACEMENT_3D ( 'NONE', #69, #9, #45 ) ;
#174 = CARTESIAN_POINT ( 'NONE',  ( 0.0000000000000000000, 0.0000000000000000000, -2.000000000000000000 ) ) ;
#175 = PLANE ( 'NONE',  #116 ) ;
ENDSEC;
END-ISO-10303-21;
