ISO-10303-21;
HEADER;
FILE_DESCRIPTION (( 'STEP AP203' ),
    '1' );
FILE_NAME ('Web Model 45463_45807.step',
    '2019-01-07T15:39:46',
    ( '' ),
    ( '' ),
    'SwSTEP 2.0',
    'SolidWorks 2016',
    '' );
FILE_SCHEMA (( 'CONFIG_CONTROL_DESIGN' ));
ENDSEC;

DATA;
#1 = APPROVAL_ROLE ( '' ) ;
#2 = CIRCLE ( 'NONE', #108, 2.499999999999999600 ) ;
#3 = CC_DESIGN_APPROVAL ( #156, ( #123 ) ) ;
#4 = ORIENTED_EDGE ( 'NONE', *, *, #8, .F. ) ;
#5 = APPROVAL ( #153, 'UNSPECIFIED' ) ;
#6 = EDGE_CURVE ( 'NONE', #126, #47, #71, .T. ) ;
#7 = CALENDAR_DATE ( 2019, 7, 1 ) ;
#8 = EDGE_CURVE ( 'NONE', #47, #22, #2, .T. ) ;
#9 = CALENDAR_DATE ( 2019, 7, 1 ) ;
#10 = EDGE_LOOP ( 'NONE', ( #132, #35 ) ) ;
#11 = CARTESIAN_POINT ( 'NONE',  ( 0.0000000000000000000, 0.0000000000000000000, 0.5000000000000000000 ) ) ;
#12 = DIRECTION ( 'NONE',  ( 0.0000000000000000000, 0.0000000000000000000, 1.000000000000000000 ) ) ;
#13 = DIRECTION ( 'NONE',  ( 1.000000000000000000, 0.0000000000000000000, 0.0000000000000000000 ) ) ;
#14 = PERSON_AND_ORGANIZATION_ROLE ( 'design_owner' ) ;
#15 = VECTOR ( 'NONE', #121, 1000.000000000000000 ) ;
#16 = CC_DESIGN_PERSON_AND_ORGANIZATION_ASSIGNMENT ( #77, #43, ( #110 ) ) ;
#17 = AXIS2_PLACEMENT_3D ( 'NONE', #62, #163, #146 ) ;
#18 = CLOSED_SHELL ( 'NONE', ( #170, #122, #68, #94 ) ) ;
#19 = FACE_OUTER_BOUND ( 'NONE', #159, .T. ) ;
#20 = PLANE ( 'NONE',  #152 ) ;
#21 = CC_DESIGN_APPROVAL ( #5, ( #110 ) ) ;
#22 = VERTEX_POINT ( 'NONE', #99 ) ;
#23 = CC_DESIGN_PERSON_AND_ORGANIZATION_ASSIGNMENT ( #63, #33, ( #110 ) ) ;
#24 = DIRECTION ( 'NONE',  ( 1.000000000000000000, 0.0000000000000000000, 0.0000000000000000000 ) ) ;
#25 = COORDINATED_UNIVERSAL_TIME_OFFSET ( 5, 0, .BEHIND. ) ;
#26 = APPLICATION_CONTEXT ( 'configuration controlled 3d designs of mechanical parts and assemblies' ) ;
#27 = AXIS2_PLACEMENT_3D ( 'NONE', #11, #148, #119 ) ;
#28 = CARTESIAN_POINT ( 'NONE',  ( 0.0000000000000000000, 0.0000000000000000000, 0.0000000000000000000 ) ) ;
#29 = CARTESIAN_POINT ( 'NONE',  ( -2.499999999999999600, 0.0000000000000000000, 0.5000000000000000000 ) ) ;
#30 = PERSON_AND_ORGANIZATION ( #157, #54 ) ;
#31 = SHAPE_DEFINITION_REPRESENTATION ( #124, #169 ) ;
#32 =( GEOMETRIC_REPRESENTATION_CONTEXT ( 3 ) GLOBAL_UNCERTAINTY_ASSIGNED_CONTEXT ( ( #61 ) ) GLOBAL_UNIT_ASSIGNED_CONTEXT ( ( #44, #135, #52 ) ) REPRESENTATION_CONTEXT ( 'NONE', 'WORKASPACE' ) );
#33 = PERSON_AND_ORGANIZATION_ROLE ( 'design_supplier' ) ;
#34 = CC_DESIGN_SECURITY_CLASSIFICATION ( #123, ( #110 ) ) ;
#35 = ORIENTED_EDGE ( 'NONE', *, *, #65, .T. ) ;
#36 = CC_DESIGN_PERSON_AND_ORGANIZATION_ASSIGNMENT ( #174, #81, ( #123 ) ) ;
#37 = EDGE_CURVE ( 'NONE', #22, #47, #171, .T. ) ;
#38 = AXIS2_PLACEMENT_3D ( 'NONE', #28, #12, #13 ) ;
#39 = LOCAL_TIME ( 10, 39, 46.00000000000000000, #48 ) ;
#40 = DIRECTION ( 'NONE',  ( -0.0000000000000000000, -0.0000000000000000000, -1.000000000000000000 ) ) ;
#41 = DIRECTION ( 'NONE',  ( 0.0000000000000000000, 0.0000000000000000000, 1.000000000000000000 ) ) ;
#42 = CIRCLE ( 'NONE', #17, 2.499999999999999600 ) ;
#43 = PERSON_AND_ORGANIZATION_ROLE ( 'creator' ) ;
#44 =( LENGTH_UNIT ( ) NAMED_UNIT ( * ) SI_UNIT ( .MILLI., .METRE. ) );
#45 = CALENDAR_DATE ( 2019, 7, 1 ) ;
#46 = PERSON_AND_ORGANIZATION ( #157, #54 ) ;
#47 = VERTEX_POINT ( 'NONE', #75 ) ;
#48 = COORDINATED_UNIVERSAL_TIME_OFFSET ( 5, 0, .BEHIND. ) ;
#49 = FACE_OUTER_BOUND ( 'NONE', #112, .T. ) ;
#50 = PERSON_AND_ORGANIZATION ( #157, #54 ) ;
#51 = DIRECTION ( 'NONE',  ( 1.000000000000000000, 0.0000000000000000000, 0.0000000000000000000 ) ) ;
#52 =( NAMED_UNIT ( * ) SI_UNIT ( $, .STERADIAN. ) SOLID_ANGLE_UNIT ( ) );
#53 = APPROVAL_ROLE ( '' ) ;
#54 = ORGANIZATION ( 'UNSPECIFIED', 'UNSPECIFIED', '' ) ;
#55 = DATE_TIME_ROLE ( 'classification_date' ) ;
#56 = DATE_AND_TIME ( #91, #39 ) ;
#57 = CC_DESIGN_PERSON_AND_ORGANIZATION_ASSIGNMENT ( #46, #154, ( #95 ) ) ;
#58 = APPROVAL_PERSON_ORGANIZATION ( #83, #156, #1 ) ;
#59 = DIRECTION ( 'NONE',  ( 0.0000000000000000000, 0.0000000000000000000, 1.000000000000000000 ) ) ;
#60 = DIRECTION ( 'NONE',  ( 1.000000000000000000, 0.0000000000000000000, 0.0000000000000000000 ) ) ;
#61 = UNCERTAINTY_MEASURE_WITH_UNIT (LENGTH_MEASURE( 1.000000000000000100E-005 ), #44, 'distance_accuracy_value', 'NONE');
#62 = CARTESIAN_POINT ( 'NONE',  ( 0.0000000000000000000, 0.0000000000000000000, 0.5000000000000000000 ) ) ;
#63 = PERSON_AND_ORGANIZATION ( #157, #54 ) ;
#64 = SECURITY_CLASSIFICATION_LEVEL ( 'unclassified' ) ;
#65 = EDGE_CURVE ( 'NONE', #126, #114, #42, .T. ) ;
#66 = APPROVAL_ROLE ( '' ) ;
#67 = ORIENTED_EDGE ( 'NONE', *, *, #65, .F. ) ;
#68 = ADVANCED_FACE ( 'NONE', ( #142 ), #20, .T. ) ;
#69 = AXIS2_PLACEMENT_3D ( 'NONE', #92, #104, #89 ) ;
#70 = DATE_AND_TIME ( #7, #158 ) ;
#71 = LINE ( 'NONE', #164, #85 ) ;
#72 = DIRECTION ( 'NONE',  ( 0.0000000000000000000, 0.0000000000000000000, 1.000000000000000000 ) ) ;
#73 = DATE_AND_TIME ( #149, #140 ) ;
#74 = DIRECTION ( 'NONE',  ( 0.0000000000000000000, 0.0000000000000000000, 1.000000000000000000 ) ) ;
#75 = CARTESIAN_POINT ( 'NONE',  ( 2.499999999999999600, 3.061616997868382600E-016, -0.5000000000000000000 ) ) ;
#76 = DIRECTION ( 'NONE',  ( 1.000000000000000000, 0.0000000000000000000, -0.0000000000000000000 ) ) ;
#77 = PERSON_AND_ORGANIZATION ( #157, #54 ) ;
#78 = ORIENTED_EDGE ( 'NONE', *, *, #8, .T. ) ;
#79 = APPLICATION_CONTEXT ( 'configuration controlled 3d designs of mechanical parts and assemblies' ) ;
#80 = CARTESIAN_POINT ( 'NONE',  ( 2.499999999999999600, 3.061616997868382600E-016, 0.5000000000000000000 ) ) ;
#81 = PERSON_AND_ORGANIZATION_ROLE ( 'classification_officer' ) ;
#82 = ORIENTED_EDGE ( 'NONE', *, *, #97, .F. ) ;
#83 = PERSON_AND_ORGANIZATION ( #157, #54 ) ;
#84 = CIRCLE ( 'NONE', #113, 2.499999999999999600 ) ;
#85 = VECTOR ( 'NONE', #40, 1000.000000000000000 ) ;
#86 = ORIENTED_EDGE ( 'NONE', *, *, #37, .F. ) ;
#87 = PLANE ( 'NONE',  #105 ) ;
#88 = COORDINATED_UNIVERSAL_TIME_OFFSET ( 5, 0, .BEHIND. ) ;
#89 = DIRECTION ( 'NONE',  ( -1.000000000000000000, 0.0000000000000000000, 0.0000000000000000000 ) ) ;
#90 = CARTESIAN_POINT ( 'NONE',  ( 0.0000000000000000000, 0.0000000000000000000, 0.5000000000000000000 ) ) ;
#91 = CALENDAR_DATE ( 2019, 7, 1 ) ;
#92 = CARTESIAN_POINT ( 'NONE',  ( 0.0000000000000000000, 0.0000000000000000000, 0.5000000000000000000 ) ) ;
#93 = MECHANICAL_CONTEXT ( 'NONE', #26, 'mechanical' ) ;
#94 = ADVANCED_FACE ( 'NONE', ( #49 ), #87, .F. ) ;
#95 = PRODUCT_DEFINITION ( 'UNKNOWN', '', #110, #155 ) ;
#96 = LINE ( 'NONE', #145, #15 ) ;
#97 = EDGE_CURVE ( 'NONE', #114, #22, #96, .T. ) ;
#98 = EDGE_CURVE ( 'NONE', #114, #126, #84, .T. ) ;
#99 = CARTESIAN_POINT ( 'NONE',  ( -2.499999999999999600, 0.0000000000000000000, -0.5000000000000000000 ) ) ;
#100 = CARTESIAN_POINT ( 'NONE',  ( 0.0000000000000000000, 0.0000000000000000000, 0.5000000000000000000 ) ) ;
#101 = PRODUCT ( 'Web Model 45463_45807', 'Web Model 45463_45807', '', ( #93 ) ) ;
#102 = FACE_OUTER_BOUND ( 'NONE', #160, .T. ) ;
#103 = APPROVAL_STATUS ( 'not_yet_approved' ) ;
#104 = DIRECTION ( 'NONE',  ( -0.0000000000000000000, -0.0000000000000000000, -1.000000000000000000 ) ) ;
#105 = AXIS2_PLACEMENT_3D ( 'NONE', #130, #72, #165 ) ;
#106 = APPROVAL_DATE_TIME ( #109, #5 ) ;
#107 = ORIENTED_EDGE ( 'NONE', *, *, #6, .T. ) ;
#108 = AXIS2_PLACEMENT_3D ( 'NONE', #143, #116, #60 ) ;
#109 = DATE_AND_TIME ( #45, #111 ) ;
#110 = PRODUCT_DEFINITION_FORMATION_WITH_SPECIFIED_SOURCE ( 'ANY', '', #101, .NOT_KNOWN. ) ;
#111 = LOCAL_TIME ( 10, 39, 46.00000000000000000, #88 ) ;
#112 = EDGE_LOOP ( 'NONE', ( #86, #4 ) ) ;
#113 = AXIS2_PLACEMENT_3D ( 'NONE', #90, #41, #51 ) ;
#114 = VERTEX_POINT ( 'NONE', #29 ) ;
#115 = CARTESIAN_POINT ( 'NONE',  ( 0.0000000000000000000, 0.0000000000000000000, -0.5000000000000000000 ) ) ;
#116 = DIRECTION ( 'NONE',  ( 0.0000000000000000000, 0.0000000000000000000, 1.000000000000000000 ) ) ;
#117 = DATE_AND_TIME ( #9, #161 ) ;
#118 = ORIENTED_EDGE ( 'NONE', *, *, #98, .F. ) ;
#119 = DIRECTION ( 'NONE',  ( -1.000000000000000000, 0.0000000000000000000, 0.0000000000000000000 ) ) ;
#120 = ORIENTED_EDGE ( 'NONE', *, *, #6, .F. ) ;
#121 = DIRECTION ( 'NONE',  ( -0.0000000000000000000, -0.0000000000000000000, -1.000000000000000000 ) ) ;
#122 = ADVANCED_FACE ( 'NONE', ( #19 ), #173, .T. ) ;
#123 = SECURITY_CLASSIFICATION ( '', '', #64 ) ;
#124 = PRODUCT_DEFINITION_SHAPE ( 'NONE', 'NONE',  #95 ) ;
#125 = APPROVAL ( #103, 'UNSPECIFIED' ) ;
#126 = VERTEX_POINT ( 'NONE', #80 ) ;
#127 = AXIS2_PLACEMENT_3D ( 'NONE', #115, #59, #24 ) ;
#128 = APPROVAL_PERSON_ORGANIZATION ( #172, #125, #53 ) ;
#129 = CC_DESIGN_DATE_AND_TIME_ASSIGNMENT ( #117, #55, ( #123 ) ) ;
#130 = CARTESIAN_POINT ( 'NONE',  ( 0.0000000000000000000, 0.0000000000000000000, -0.5000000000000000000 ) ) ;
#131 = COORDINATED_UNIVERSAL_TIME_OFFSET ( 5, 0, .BEHIND. ) ;
#132 = ORIENTED_EDGE ( 'NONE', *, *, #98, .T. ) ;
#133 = COORDINATED_UNIVERSAL_TIME_OFFSET ( 5, 0, .BEHIND. ) ;
#134 = CC_DESIGN_DATE_AND_TIME_ASSIGNMENT ( #70, #136, ( #95 ) ) ;
#135 =( NAMED_UNIT ( * ) PLANE_ANGLE_UNIT ( ) SI_UNIT ( $, .RADIAN. ) );
#136 = DATE_TIME_ROLE ( 'creation_date' ) ;
#137 = CC_DESIGN_PERSON_AND_ORGANIZATION_ASSIGNMENT ( #50, #14, ( #101 ) ) ;
#138 = CYLINDRICAL_SURFACE ( 'NONE', #69, 2.499999999999999600 ) ;
#139 = MANIFOLD_SOLID_BREP ( 'Boss-Extrude1', #18 ) ;
#140 = LOCAL_TIME ( 10, 39, 46.00000000000000000, #131 ) ;
#141 = APPROVAL_DATE_TIME ( #73, #156 ) ;
#142 = FACE_OUTER_BOUND ( 'NONE', #10, .T. ) ;
#143 = CARTESIAN_POINT ( 'NONE',  ( 0.0000000000000000000, 0.0000000000000000000, -0.5000000000000000000 ) ) ;
#144 = APPROVAL_PERSON_ORGANIZATION ( #30, #5, #66 ) ;
#145 = CARTESIAN_POINT ( 'NONE',  ( -2.499999999999999600, 0.0000000000000000000, 0.5000000000000000000 ) ) ;
#146 = DIRECTION ( 'NONE',  ( 1.000000000000000000, 0.0000000000000000000, 0.0000000000000000000 ) ) ;
#147 = CC_DESIGN_APPROVAL ( #125, ( #95 ) ) ;
#148 = DIRECTION ( 'NONE',  ( -0.0000000000000000000, -0.0000000000000000000, -1.000000000000000000 ) ) ;
#149 = CALENDAR_DATE ( 2019, 7, 1 ) ;
#150 = ORIENTED_EDGE ( 'NONE', *, *, #37, .T. ) ;
#151 = APPLICATION_PROTOCOL_DEFINITION ( 'international standard', 'config_control_design', 1994, #79 ) ;
#152 = AXIS2_PLACEMENT_3D ( 'NONE', #100, #74, #76 ) ;
#153 = APPROVAL_STATUS ( 'not_yet_approved' ) ;
#154 = PERSON_AND_ORGANIZATION_ROLE ( 'creator' ) ;
#155 = DESIGN_CONTEXT ( 'detailed design', #79, 'design' ) ;
#156 = APPROVAL ( #166, 'UNSPECIFIED' ) ;
#157 = PERSON ( 'UNSPECIFIED', 'UNSPECIFIED', 'UNSPECIFIED', ('UNSPECIFIED'), ('UNSPECIFIED'), ('UNSPECIFIED') ) ;
#158 = LOCAL_TIME ( 10, 39, 46.00000000000000000, #25 ) ;
#159 = EDGE_LOOP ( 'NONE', ( #120, #118, #162, #150 ) ) ;
#160 = EDGE_LOOP ( 'NONE', ( #67, #107, #78, #82 ) ) ;
#161 = LOCAL_TIME ( 10, 39, 46.00000000000000000, #133 ) ;
#162 = ORIENTED_EDGE ( 'NONE', *, *, #97, .T. ) ;
#163 = DIRECTION ( 'NONE',  ( 0.0000000000000000000, 0.0000000000000000000, 1.000000000000000000 ) ) ;
#164 = CARTESIAN_POINT ( 'NONE',  ( 2.499999999999999600, 3.061616997868382600E-016, 0.5000000000000000000 ) ) ;
#165 = DIRECTION ( 'NONE',  ( 1.000000000000000000, 0.0000000000000000000, -0.0000000000000000000 ) ) ;
#166 = APPROVAL_STATUS ( 'not_yet_approved' ) ;
#167 = APPROVAL_DATE_TIME ( #56, #125 ) ;
#168 = APPLICATION_PROTOCOL_DEFINITION ( 'international standard', 'config_control_design', 1994, #26 ) ;
#169 = ADVANCED_BREP_SHAPE_REPRESENTATION ( 'Web Model 45463_45807', ( #139, #38 ), #32 ) ;
#170 = ADVANCED_FACE ( 'NONE', ( #102 ), #138, .T. ) ;
#171 = CIRCLE ( 'NONE', #127, 2.499999999999999600 ) ;
#172 = PERSON_AND_ORGANIZATION ( #157, #54 ) ;
#173 = CYLINDRICAL_SURFACE ( 'NONE', #27, 2.499999999999999600 ) ;
#174 = PERSON_AND_ORGANIZATION ( #157, #54 ) ;
#175 = PRODUCT_RELATED_PRODUCT_CATEGORY ( 'detail', '', ( #101 ) ) ;
ENDSEC;
END-ISO-10303-21;
