ISO-10303-21;
HEADER;
FILE_DESCRIPTION (( 'STEP AP203' ),
    '1' );
FILE_NAME ('Web Model 43772_43775.step',
    '2018-03-12T19:20:14',
    ( '' ),
    ( '' ),
    'SwSTEP 2.0',
    'SolidWorks 2016',
    '' );
FILE_SCHEMA (( 'CONFIG_CONTROL_DESIGN' ));
ENDSEC;

DATA;
#1 = CARTESIAN_POINT ( 'NONE',  ( -3.000000000000000000, -6.349999999999997900, 6.350000000000000500 ) ) ;
#2 = PLANE ( 'NONE',  #123 ) ;
#3 = AXIS2_PLACEMENT_3D ( 'NONE', #90, #143, #202 ) ;
#4 = CARTESIAN_POINT ( 'NONE',  ( 3.000000000000000000, 6.350000000000000500, 6.349999999999997900 ) ) ;
#5 = EDGE_LOOP ( 'NONE', ( #31, #64, #36, #228 ) ) ;
#6 = COORDINATED_UNIVERSAL_TIME_OFFSET ( 5, 0, .BEHIND. ) ;
#7 = VECTOR ( 'NONE', #148, 1000.000000000000000 ) ;
#8 = DIRECTION ( 'NONE',  ( 1.000000000000000000, 0.0000000000000000000, 0.0000000000000000000 ) ) ;
#9 = SHAPE_DEFINITION_REPRESENTATION ( #87, #109 ) ;
#10 = ORIENTED_EDGE ( 'NONE', *, *, #60, .T. ) ;
#11 = APPLICATION_PROTOCOL_DEFINITION ( 'international standard', 'config_control_design', 1994, #77 ) ;
#12 = APPROVAL_DATE_TIME ( #189, #142 ) ;
#13 = LINE ( 'NONE', #56, #43 ) ;
#14 = DIRECTION ( 'NONE',  ( -0.0000000000000000000, -0.0000000000000000000, 1.000000000000000000 ) ) ;
#15 = LOCAL_TIME ( 15, 20, 14.00000000000000000, #102 ) ;
#16 = ORIENTED_EDGE ( 'NONE', *, *, #60, .F. ) ;
#17 = CALENDAR_DATE ( 2018, 12, 3 ) ;
#18 = VECTOR ( 'NONE', #59, 1000.000000000000000 ) ;
#19 = PLANE ( 'NONE',  #208 ) ;
#20 = CARTESIAN_POINT ( 'NONE',  ( 3.000000000000000000, -6.349999999999997900, 6.350000000000000500 ) ) ;
#21 = CARTESIAN_POINT ( 'NONE',  ( 3.000000000000000000, 6.350000000000000500, -6.349999999999999600 ) ) ;
#22 = DIRECTION ( 'NONE',  ( 0.0000000000000000000, -1.000000000000000000, 0.0000000000000000000 ) ) ;
#23 = APPROVAL_STATUS ( 'not_yet_approved' ) ;
#24 = DIRECTION ( 'NONE',  ( 1.000000000000000000, 0.0000000000000000000, 0.0000000000000000000 ) ) ;
#25 = AXIS2_PLACEMENT_3D ( 'NONE', #168, #24, #204 ) ;
#26 = COORDINATED_UNIVERSAL_TIME_OFFSET ( 5, 0, .BEHIND. ) ;
#27 = DATE_TIME_ROLE ( 'creation_date' ) ;
#28 = LINE ( 'NONE', #37, #7 ) ;
#29 = CC_DESIGN_APPROVAL ( #142, ( #104 ) ) ;
#30 = DATE_AND_TIME ( #42, #15 ) ;
#31 = ORIENTED_EDGE ( 'NONE', *, *, #192, .F. ) ;
#32 = VECTOR ( 'NONE', #51, 1000.000000000000000 ) ;
#33 = DATE_AND_TIME ( #144, #92 ) ;
#34 = LOCAL_TIME ( 15, 20, 14.00000000000000000, #46 ) ;
#35 = CC_DESIGN_APPROVAL ( #157, ( #83 ) ) ;
#36 = ORIENTED_EDGE ( 'NONE', *, *, #214, .F. ) ;
#37 = CARTESIAN_POINT ( 'NONE',  ( -3.000000000000000000, 6.350000000000000500, 6.349999999999997900 ) ) ;
#38 = CC_DESIGN_DATE_AND_TIME_ASSIGNMENT ( #30, #206, ( #174 ) ) ;
#39 = DIRECTION ( 'NONE',  ( 0.0000000000000000000, -0.0000000000000000000, -1.000000000000000000 ) ) ;
#40 = CARTESIAN_POINT ( 'NONE',  ( 3.000000000000000000, -6.349999999999997900, 6.350000000000000500 ) ) ;
#41 = EDGE_LOOP ( 'NONE', ( #10, #45, #126, #79 ) ) ;
#42 = CALENDAR_DATE ( 2018, 12, 3 ) ;
#43 = VECTOR ( 'NONE', #199, 1000.000000000000000 ) ;
#44 = SECURITY_CLASSIFICATION_LEVEL ( 'unclassified' ) ;
#45 = ORIENTED_EDGE ( 'NONE', *, *, #100, .T. ) ;
#46 = COORDINATED_UNIVERSAL_TIME_OFFSET ( 5, 0, .BEHIND. ) ;
#47 = CC_DESIGN_PERSON_AND_ORGANIZATION_ASSIGNMENT ( #203, #61, ( #174 ) ) ;
#48 = VERTEX_POINT ( 'NONE', #218 ) ;
#49 = EDGE_LOOP ( 'NONE', ( #217, #147, #233, #191 ) ) ;
#50 = LINE ( 'NONE', #178, #232 ) ;
#51 = DIRECTION ( 'NONE',  ( 0.0000000000000000000, -1.000000000000000000, 2.048885995248197400E-016 ) ) ;
#52 = DIRECTION ( 'NONE',  ( 0.0000000000000000000, -2.048885995248197400E-016, 1.000000000000000000 ) ) ;
#53 = ADVANCED_FACE ( 'NONE', ( #236 ), #2, .F. ) ;
#54 = LINE ( 'NONE', #183, #82 ) ;
#55 = DIRECTION ( 'NONE',  ( 0.0000000000000000000, -1.000000000000000000, -2.048885995248197400E-016 ) ) ;
#56 = CARTESIAN_POINT ( 'NONE',  ( 3.000000000000000000, -6.349999999999997900, 6.350000000000000500 ) ) ;
#57 = CARTESIAN_POINT ( 'NONE',  ( 3.000000000000000000, 6.350000000000000500, 6.349999999999997900 ) ) ;
#58 = FACE_OUTER_BOUND ( 'NONE', #41, .T. ) ;
#59 = DIRECTION ( 'NONE',  ( 0.0000000000000000000, -1.000000000000000000, 2.048885995248197400E-016 ) ) ;
#60 = EDGE_CURVE ( 'NONE', #172, #68, #80, .T. ) ;
#61 = PERSON_AND_ORGANIZATION_ROLE ( 'classification_officer' ) ;
#62 = CALENDAR_DATE ( 2018, 12, 3 ) ;
#63 = MECHANICAL_CONTEXT ( 'NONE', #131, 'mechanical' ) ;
#64 = ORIENTED_EDGE ( 'NONE', *, *, #88, .F. ) ;
#65 = VECTOR ( 'NONE', #14, 1000.000000000000000 ) ;
#66 =( GEOMETRIC_REPRESENTATION_CONTEXT ( 3 ) GLOBAL_UNCERTAINTY_ASSIGNED_CONTEXT ( ( #153 ) ) GLOBAL_UNIT_ASSIGNED_CONTEXT ( ( #93, #76, #112 ) ) REPRESENTATION_CONTEXT ( 'NONE', 'WORKASPACE' ) );
#67 = DATE_AND_TIME ( #71, #34 ) ;
#68 = VERTEX_POINT ( 'NONE', #20 ) ;
#69 = ADVANCED_FACE ( 'NONE', ( #184 ), #129, .F. ) ;
#70 = PERSON_AND_ORGANIZATION ( #226, #177 ) ;
#71 = CALENDAR_DATE ( 2018, 12, 3 ) ;
#72 = CARTESIAN_POINT ( 'NONE',  ( -3.000000000000000000, -6.349999999999997900, -6.350000000000002300 ) ) ;
#73 = CARTESIAN_POINT ( 'NONE',  ( 3.000000000000000000, 6.350000000000000500, 6.349999999999997900 ) ) ;
#74 = APPROVAL_STATUS ( 'not_yet_approved' ) ;
#75 = VECTOR ( 'NONE', #222, 1000.000000000000000 ) ;
#76 =( NAMED_UNIT ( * ) PLANE_ANGLE_UNIT ( ) SI_UNIT ( $, .RADIAN. ) );
#77 = APPLICATION_CONTEXT ( 'configuration controlled 3d designs of mechanical parts and assemblies' ) ;
#78 = DIRECTION ( 'NONE',  ( -1.000000000000000000, -0.0000000000000000000, -0.0000000000000000000 ) ) ;
#79 = ORIENTED_EDGE ( 'NONE', *, *, #161, .T. ) ;
#80 = LINE ( 'NONE', #4, #32 ) ;
#81 = COORDINATED_UNIVERSAL_TIME_OFFSET ( 5, 0, .BEHIND. ) ;
#82 = VECTOR ( 'NONE', #78, 1000.000000000000000 ) ;
#83 = PRODUCT_DEFINITION_FORMATION_WITH_SPECIFIED_SOURCE ( 'ANY', '', #119, .NOT_KNOWN. ) ;
#84 = VERTEX_POINT ( 'NONE', #1 ) ;
#85 = LINE ( 'NONE', #163, #193 ) ;
#86 = CARTESIAN_POINT ( 'NONE',  ( -3.000000000000000000, 6.350000000000000500, 6.349999999999997900 ) ) ;
#87 = PRODUCT_DEFINITION_SHAPE ( 'NONE', 'NONE',  #104 ) ;
#88 = EDGE_CURVE ( 'NONE', #48, #101, #28, .T. ) ;
#89 = VECTOR ( 'NONE', #162, 1000.000000000000000 ) ;
#90 = CARTESIAN_POINT ( 'NONE',  ( -3.000000000000000000, 0.0000000000000000000, 0.0000000000000000000 ) ) ;
#91 = ORIENTED_EDGE ( 'NONE', *, *, #212, .F. ) ;
#92 = LOCAL_TIME ( 15, 20, 14.00000000000000000, #81 ) ;
#93 =( LENGTH_UNIT ( ) NAMED_UNIT ( * ) SI_UNIT ( .MILLI., .METRE. ) );
#94 = APPROVAL_STATUS ( 'not_yet_approved' ) ;
#95 = EDGE_CURVE ( 'NONE', #173, #48, #85, .T. ) ;
#96 = APPROVAL_ROLE ( '' ) ;
#97 = VECTOR ( 'NONE', #179, 1000.000000000000000 ) ;
#98 = LOCAL_TIME ( 15, 20, 14.00000000000000000, #6 ) ;
#99 = LINE ( 'NONE', #185, #113 ) ;
#100 = EDGE_CURVE ( 'NONE', #68, #137, #13, .T. ) ;
#101 = VERTEX_POINT ( 'NONE', #86 ) ;
#102 = COORDINATED_UNIVERSAL_TIME_OFFSET ( 5, 0, .BEHIND. ) ;
#103 = EDGE_LOOP ( 'NONE', ( #231, #188, #197, #120 ) ) ;
#104 = PRODUCT_DEFINITION ( 'UNKNOWN', '', #83, #175 ) ;
#105 = PERSON_AND_ORGANIZATION ( #226, #177 ) ;
#106 = FACE_OUTER_BOUND ( 'NONE', #5, .T. ) ;
#107 = ADVANCED_FACE ( 'NONE', ( #128 ), #19, .F. ) ;
#108 = DIRECTION ( 'NONE',  ( -1.000000000000000000, -0.0000000000000000000, -0.0000000000000000000 ) ) ;
#109 = ADVANCED_BREP_SHAPE_REPRESENTATION ( 'Web Model 43772_43775', ( #140, #180 ), #66 ) ;
#110 = LOCAL_TIME ( 15, 20, 14.00000000000000000, #26 ) ;
#111 = CARTESIAN_POINT ( 'NONE',  ( -3.000000000000000000, 6.350000000000000500, 6.349999999999997900 ) ) ;
#112 =( NAMED_UNIT ( * ) SI_UNIT ( $, .STERADIAN. ) SOLID_ANGLE_UNIT ( ) );
#113 = VECTOR ( 'NONE', #135, 1000.000000000000000 ) ;
#114 = LINE ( 'NONE', #220, #89 ) ;
#115 = PLANE ( 'NONE',  #25 ) ;
#116 = CARTESIAN_POINT ( 'NONE',  ( 3.000000000000000000, 6.350000000000000500, 6.349999999999997900 ) ) ;
#117 = EDGE_CURVE ( 'NONE', #172, #101, #145, .T. ) ;
#118 = PERSON_AND_ORGANIZATION ( #226, #177 ) ;
#119 = PRODUCT ( 'Web Model 43772_43775', 'Web Model 43772_43775', '', ( #63 ) ) ;
#120 = ORIENTED_EDGE ( 'NONE', *, *, #212, .T. ) ;
#121 = CC_DESIGN_PERSON_AND_ORGANIZATION_ASSIGNMENT ( #105, #229, ( #119 ) ) ;
#122 = ORIENTED_EDGE ( 'NONE', *, *, #136, .T. ) ;
#123 = AXIS2_PLACEMENT_3D ( 'NONE', #215, #219, #201 ) ;
#124 = PLANE ( 'NONE',  #3 ) ;
#125 = CARTESIAN_POINT ( 'NONE',  ( 3.000000000000000000, 6.350000000000000500, 6.349999999999997900 ) ) ;
#126 = ORIENTED_EDGE ( 'NONE', *, *, #230, .T. ) ;
#127 = AXIS2_PLACEMENT_3D ( 'NONE', #21, #52, #55 ) ;
#128 = FACE_OUTER_BOUND ( 'NONE', #49, .T. ) ;
#129 = PLANE ( 'NONE',  #127 ) ;
#130 = EDGE_LOOP ( 'NONE', ( #122, #91, #216, #164 ) ) ;
#131 = APPLICATION_CONTEXT ( 'configuration controlled 3d designs of mechanical parts and assemblies' ) ;
#132 = PERSON_AND_ORGANIZATION_ROLE ( 'creator' ) ;
#133 = APPROVAL_ROLE ( '' ) ;
#134 = CLOSED_SHELL ( 'NONE', ( #53, #200, #69, #107, #235, #160 ) ) ;
#135 = DIRECTION ( 'NONE',  ( -0.0000000000000000000, 1.000000000000000000, 2.048885995248197400E-016 ) ) ;
#136 = EDGE_CURVE ( 'NONE', #84, #213, #50, .T. ) ;
#137 = VERTEX_POINT ( 'NONE', #167 ) ;
#138 = AXIS2_PLACEMENT_3D ( 'NONE', #40, #209, #221 ) ;
#139 = PERSON_AND_ORGANIZATION ( #226, #177 ) ;
#140 = MANIFOLD_SOLID_BREP ( 'Boss-Extrude1', #134 ) ;
#141 = ORIENTED_EDGE ( 'NONE', *, *, #149, .F. ) ;
#142 = APPROVAL ( #94, 'UNSPECIFIED' ) ;
#143 = DIRECTION ( 'NONE',  ( 1.000000000000000000, 0.0000000000000000000, 0.0000000000000000000 ) ) ;
#144 = CALENDAR_DATE ( 2018, 12, 3 ) ;
#145 = LINE ( 'NONE', #57, #97 ) ;
#146 = DIRECTION ( 'NONE',  ( 0.0000000000000000000, 0.0000000000000000000, -1.000000000000000000 ) ) ;
#147 = ORIENTED_EDGE ( 'NONE', *, *, #117, .F. ) ;
#148 = DIRECTION ( 'NONE',  ( -0.0000000000000000000, -0.0000000000000000000, 1.000000000000000000 ) ) ;
#149 = EDGE_CURVE ( 'NONE', #68, #84, #114, .T. ) ;
#150 = PERSON_AND_ORGANIZATION_ROLE ( 'design_supplier' ) ;
#151 = APPROVAL ( #74, 'UNSPECIFIED' ) ;
#152 = PLANE ( 'NONE',  #138 ) ;
#153 = UNCERTAINTY_MEASURE_WITH_UNIT (LENGTH_MEASURE( 1.000000000000000100E-005 ), #93, 'distance_accuracy_value', 'NONE');
#154 = PERSON_AND_ORGANIZATION_ROLE ( 'creator' ) ;
#155 = PERSON_AND_ORGANIZATION ( #226, #177 ) ;
#156 = DATE_AND_TIME ( #17, #110 ) ;
#157 = APPROVAL ( #23, 'UNSPECIFIED' ) ;
#158 = LINE ( 'NONE', #116, #65 ) ;
#159 = ORIENTED_EDGE ( 'NONE', *, *, #117, .T. ) ;
#160 = ADVANCED_FACE ( 'NONE', ( #106 ), #124, .F. ) ;
#161 = EDGE_CURVE ( 'NONE', #173, #172, #158, .T. ) ;
#162 = DIRECTION ( 'NONE',  ( -1.000000000000000000, -0.0000000000000000000, -0.0000000000000000000 ) ) ;
#163 = CARTESIAN_POINT ( 'NONE',  ( 3.000000000000000000, 6.350000000000000500, -6.349999999999999600 ) ) ;
#164 = ORIENTED_EDGE ( 'NONE', *, *, #149, .T. ) ;
#165 = CC_DESIGN_PERSON_AND_ORGANIZATION_ASSIGNMENT ( #198, #154, ( #83 ) ) ;
#166 = APPROVAL_PERSON_ORGANIZATION ( #118, #142, #133 ) ;
#167 = CARTESIAN_POINT ( 'NONE',  ( 3.000000000000000000, -6.349999999999997900, -6.350000000000002300 ) ) ;
#168 = CARTESIAN_POINT ( 'NONE',  ( 3.000000000000000000, 0.0000000000000000000, 0.0000000000000000000 ) ) ;
#169 = APPROVAL_PERSON_ORGANIZATION ( #170, #151, #227 ) ;
#170 = PERSON_AND_ORGANIZATION ( #226, #177 ) ;
#171 = CARTESIAN_POINT ( 'NONE',  ( 0.0000000000000000000, 0.0000000000000000000, 0.0000000000000000000 ) ) ;
#172 = VERTEX_POINT ( 'NONE', #125 ) ;
#173 = VERTEX_POINT ( 'NONE', #186 ) ;
#174 = SECURITY_CLASSIFICATION ( '', '', #44 ) ;
#175 = DESIGN_CONTEXT ( 'detailed design', #77, 'design' ) ;
#176 = APPROVAL_DATE_TIME ( #67, #151 ) ;
#177 = ORGANIZATION ( 'UNSPECIFIED', 'UNSPECIFIED', '' ) ;
#178 = CARTESIAN_POINT ( 'NONE',  ( -3.000000000000000000, -6.349999999999997900, 6.350000000000000500 ) ) ;
#179 = DIRECTION ( 'NONE',  ( -1.000000000000000000, -0.0000000000000000000, -0.0000000000000000000 ) ) ;
#180 = AXIS2_PLACEMENT_3D ( 'NONE', #171, #205, #8 ) ;
#181 = APPLICATION_PROTOCOL_DEFINITION ( 'international standard', 'config_control_design', 1994, #131 ) ;
#182 = LINE ( 'NONE', #225, #75 ) ;
#183 = CARTESIAN_POINT ( 'NONE',  ( 3.000000000000000000, -6.349999999999997900, -6.350000000000002300 ) ) ;
#184 = FACE_OUTER_BOUND ( 'NONE', #103, .T. ) ;
#185 = CARTESIAN_POINT ( 'NONE',  ( 3.000000000000000000, 6.350000000000000500, -6.349999999999999600 ) ) ;
#186 = CARTESIAN_POINT ( 'NONE',  ( 3.000000000000000000, 6.350000000000000500, -6.349999999999999600 ) ) ;
#187 = PRODUCT_RELATED_PRODUCT_CATEGORY ( 'detail', '', ( #119 ) ) ;
#188 = ORIENTED_EDGE ( 'NONE', *, *, #95, .F. ) ;
#189 = DATE_AND_TIME ( #62, #98 ) ;
#190 = FACE_OUTER_BOUND ( 'NONE', #130, .T. ) ;
#191 = ORIENTED_EDGE ( 'NONE', *, *, #95, .T. ) ;
#192 = EDGE_CURVE ( 'NONE', #101, #84, #207, .T. ) ;
#193 = VECTOR ( 'NONE', #108, 1000.000000000000000 ) ;
#194 = ORIENTED_EDGE ( 'NONE', *, *, #192, .T. ) ;
#195 = CC_DESIGN_PERSON_AND_ORGANIZATION_ASSIGNMENT ( #139, #132, ( #104 ) ) ;
#196 = CC_DESIGN_APPROVAL ( #151, ( #174 ) ) ;
#197 = ORIENTED_EDGE ( 'NONE', *, *, #230, .F. ) ;
#198 = PERSON_AND_ORGANIZATION ( #226, #177 ) ;
#199 = DIRECTION ( 'NONE',  ( 0.0000000000000000000, 0.0000000000000000000, -1.000000000000000000 ) ) ;
#200 = ADVANCED_FACE ( 'NONE', ( #190 ), #152, .F. ) ;
#201 = DIRECTION ( 'NONE',  ( 0.0000000000000000000, 1.000000000000000000, -2.048885995248197400E-016 ) ) ;
#202 = DIRECTION ( 'NONE',  ( 0.0000000000000000000, 0.0000000000000000000, -1.000000000000000000 ) ) ;
#203 = PERSON_AND_ORGANIZATION ( #226, #177 ) ;
#204 = DIRECTION ( 'NONE',  ( 0.0000000000000000000, 0.0000000000000000000, -1.000000000000000000 ) ) ;
#205 = DIRECTION ( 'NONE',  ( 0.0000000000000000000, 0.0000000000000000000, 1.000000000000000000 ) ) ;
#206 = DATE_TIME_ROLE ( 'classification_date' ) ;
#207 = LINE ( 'NONE', #111, #18 ) ;
#208 = AXIS2_PLACEMENT_3D ( 'NONE', #73, #22, #39 ) ;
#209 = DIRECTION ( 'NONE',  ( -0.0000000000000000000, 1.000000000000000000, 0.0000000000000000000 ) ) ;
#210 = APPROVAL_PERSON_ORGANIZATION ( #70, #157, #96 ) ;
#211 = CC_DESIGN_SECURITY_CLASSIFICATION ( #174, ( #83 ) ) ;
#212 = EDGE_CURVE ( 'NONE', #137, #213, #54, .T. ) ;
#213 = VERTEX_POINT ( 'NONE', #72 ) ;
#214 = EDGE_CURVE ( 'NONE', #213, #48, #182, .T. ) ;
#215 = CARTESIAN_POINT ( 'NONE',  ( 3.000000000000000000, 6.350000000000000500, 6.349999999999997900 ) ) ;
#216 = ORIENTED_EDGE ( 'NONE', *, *, #100, .F. ) ;
#217 = ORIENTED_EDGE ( 'NONE', *, *, #88, .T. ) ;
#218 = CARTESIAN_POINT ( 'NONE',  ( -3.000000000000000000, 6.350000000000000500, -6.349999999999999600 ) ) ;
#219 = DIRECTION ( 'NONE',  ( 0.0000000000000000000, -2.048885995248197400E-016, -1.000000000000000000 ) ) ;
#220 = CARTESIAN_POINT ( 'NONE',  ( 3.000000000000000000, -6.349999999999997900, 6.350000000000000500 ) ) ;
#221 = DIRECTION ( 'NONE',  ( 0.0000000000000000000, -0.0000000000000000000, 1.000000000000000000 ) ) ;
#222 = DIRECTION ( 'NONE',  ( -0.0000000000000000000, 1.000000000000000000, 2.048885995248197400E-016 ) ) ;
#223 = APPROVAL_DATE_TIME ( #156, #157 ) ;
#224 = CC_DESIGN_DATE_AND_TIME_ASSIGNMENT ( #33, #27, ( #104 ) ) ;
#225 = CARTESIAN_POINT ( 'NONE',  ( -3.000000000000000000, 6.350000000000000500, -6.349999999999999600 ) ) ;
#226 = PERSON ( 'UNSPECIFIED', 'UNSPECIFIED', 'UNSPECIFIED', ('UNSPECIFIED'), ('UNSPECIFIED'), ('UNSPECIFIED') ) ;
#227 = APPROVAL_ROLE ( '' ) ;
#228 = ORIENTED_EDGE ( 'NONE', *, *, #136, .F. ) ;
#229 = PERSON_AND_ORGANIZATION_ROLE ( 'design_owner' ) ;
#230 = EDGE_CURVE ( 'NONE', #137, #173, #99, .T. ) ;
#231 = ORIENTED_EDGE ( 'NONE', *, *, #214, .T. ) ;
#232 = VECTOR ( 'NONE', #146, 1000.000000000000000 ) ;
#233 = ORIENTED_EDGE ( 'NONE', *, *, #161, .F. ) ;
#234 = EDGE_LOOP ( 'NONE', ( #194, #141, #16, #159 ) ) ;
#235 = ADVANCED_FACE ( 'NONE', ( #58 ), #115, .T. ) ;
#236 = FACE_OUTER_BOUND ( 'NONE', #234, .T. ) ;
#237 = CC_DESIGN_PERSON_AND_ORGANIZATION_ASSIGNMENT ( #155, #150, ( #83 ) ) ;
ENDSEC;
END-ISO-10303-21;
