ISO-10303-21;
HEADER;
FILE_DESCRIPTION (( 'STEP AP203' ),
    '1' );
FILE_NAME ('Web Model 84450.STEP',
    '2017-02-01T15:43:21',
    ( '' ),
    ( '' ),
    'SwSTEP 2.0',
    'SolidWorks 2016',
    '' );
FILE_SCHEMA (( 'CONFIG_CONTROL_DESIGN' ));
ENDSEC;

DATA;
#1 = EDGE_LOOP ( 'NONE', ( #63, #16, #32, #78 ) ) ;
#2 = PERSON_AND_ORGANIZATION ( #171, #120 ) ;
#3 = COORDINATED_UNIVERSAL_TIME_OFFSET ( 5, 0, .BEHIND. ) ;
#4 = VERTEX_POINT ( 'NONE', #27 ) ;
#5 = APPROVAL_DATE_TIME ( #51, #69 ) ;
#6 = DIRECTION ( 'NONE',  ( 0.0000000000000000000, 0.0000000000000000000, 1.000000000000000000 ) ) ;
#7 = AXIS2_PLACEMENT_3D ( 'NONE', #36, #64, #164 ) ;
#8 = FACE_OUTER_BOUND ( 'NONE', #133, .T. ) ;
#9 = DATE_AND_TIME ( #82, #148 ) ;
#10 = PRODUCT ( 'Web Model 84450', 'Web Model 84450', '', ( #86 ) ) ;
#11 = PRODUCT_DEFINITION_FORMATION_WITH_SPECIFIED_SOURCE ( 'ANY', '', #10, .NOT_KNOWN. ) ;
#12 = PERSON_AND_ORGANIZATION ( #171, #120 ) ;
#13 = UNCERTAINTY_MEASURE_WITH_UNIT (LENGTH_MEASURE( 1.000000000000000100E-005 ), #44, 'distance_accuracy_value', 'NONE');
#14 = CARTESIAN_POINT ( 'NONE',  ( 0.0000000000000000000, 0.0000000000000000000, -1.250000000000000000 ) ) ;
#15 = DIRECTION ( 'NONE',  ( 0.0000000000000000000, 0.0000000000000000000, 1.000000000000000000 ) ) ;
#16 = ORIENTED_EDGE ( 'NONE', *, *, #153, .T. ) ;
#17 = COORDINATED_UNIVERSAL_TIME_OFFSET ( 5, 0, .BEHIND. ) ;
#18 = LOCAL_TIME ( 10, 43, 21.00000000000000000, #20 ) ;
#19 =( GEOMETRIC_REPRESENTATION_CONTEXT ( 3 ) GLOBAL_UNCERTAINTY_ASSIGNED_CONTEXT ( ( #13 ) ) GLOBAL_UNIT_ASSIGNED_CONTEXT ( ( #44, #126, #139 ) ) REPRESENTATION_CONTEXT ( 'NONE', 'WORKASPACE' ) );
#20 = COORDINATED_UNIVERSAL_TIME_OFFSET ( 5, 0, .BEHIND. ) ;
#21 = SECURITY_CLASSIFICATION_LEVEL ( 'unclassified' ) ;
#22 = APPROVAL_STATUS ( 'not_yet_approved' ) ;
#23 = EDGE_CURVE ( 'NONE', #4, #76, #102, .T. ) ;
#24 = CIRCLE ( 'NONE', #65, 5.000000000000000000 ) ;
#25 = ADVANCED_FACE ( 'NONE', ( #112 ), #42, .T. ) ;
#26 = DIRECTION ( 'NONE',  ( 0.0000000000000000000, 0.0000000000000000000, 1.000000000000000000 ) ) ;
#27 = CARTESIAN_POINT ( 'NONE',  ( 5.000000000000000000, 0.0000000000000000000, -1.250000000000000000 ) ) ;
#28 = CIRCLE ( 'NONE', #37, 5.000000000000000000 ) ;
#29 = ORIENTED_EDGE ( 'NONE', *, *, #41, .T. ) ;
#30 = EDGE_CURVE ( 'NONE', #40, #97, #131, .T. ) ;
#31 = DESIGN_CONTEXT ( 'detailed design', #125, 'design' ) ;
#32 = ORIENTED_EDGE ( 'NONE', *, *, #23, .T. ) ;
#33 = COORDINATED_UNIVERSAL_TIME_OFFSET ( 5, 0, .BEHIND. ) ;
#34 = AXIS2_PLACEMENT_3D ( 'NONE', #119, #172, #62 ) ;
#35 = CARTESIAN_POINT ( 'NONE',  ( 5.000000000000000000, 0.0000000000000000000, -1.250000000000000000 ) ) ;
#36 = CARTESIAN_POINT ( 'NONE',  ( 0.0000000000000000000, 0.0000000000000000000, 0.0000000000000000000 ) ) ;
#37 = AXIS2_PLACEMENT_3D ( 'NONE', #161, #15, #143 ) ;
#38 = ORIENTED_EDGE ( 'NONE', *, *, #132, .T. ) ;
#39 = PERSON_AND_ORGANIZATION ( #171, #120 ) ;
#40 = VERTEX_POINT ( 'NONE', #47 ) ;
#41 = EDGE_CURVE ( 'NONE', #4, #40, #28, .T. ) ;
#42 = CYLINDRICAL_SURFACE ( 'NONE', #34, 5.000000000000000000 ) ;
#43 = CALENDAR_DATE ( 2017, 1, 2 ) ;
#44 =( LENGTH_UNIT ( ) NAMED_UNIT ( * ) SI_UNIT ( .MILLI., .METRE. ) );
#45 = ADVANCED_FACE ( 'NONE', ( #8 ), #93, .T. ) ;
#46 = DIRECTION ( 'NONE',  ( 1.000000000000000000, 0.0000000000000000000, 0.0000000000000000000 ) ) ;
#47 = CARTESIAN_POINT ( 'NONE',  ( -5.000000000000000000, 6.123233995736766300E-016, -1.250000000000000000 ) ) ;
#48 = DIRECTION ( 'NONE',  ( 1.000000000000000000, 0.0000000000000000000, -0.0000000000000000000 ) ) ;
#49 = DIRECTION ( 'NONE',  ( 1.000000000000000000, 0.0000000000000000000, -0.0000000000000000000 ) ) ;
#50 = ADVANCED_FACE ( 'NONE', ( #107 ), #89, .F. ) ;
#51 = DATE_AND_TIME ( #77, #72 ) ;
#52 = AXIS2_PLACEMENT_3D ( 'NONE', #14, #104, #48 ) ;
#53 = DATE_AND_TIME ( #92, #128 ) ;
#54 = CC_DESIGN_PERSON_AND_ORGANIZATION_ASSIGNMENT ( #142, #159, ( #11 ) ) ;
#55 = ADVANCED_BREP_SHAPE_REPRESENTATION ( 'Web Model 84450', ( #166, #123 ), #19 ) ;
#56 = CC_DESIGN_PERSON_AND_ORGANIZATION_ASSIGNMENT ( #68, #100, ( #10 ) ) ;
#57 = APPROVAL_STATUS ( 'not_yet_approved' ) ;
#58 = SECURITY_CLASSIFICATION ( '', '', #21 ) ;
#59 = APPROVAL_ROLE ( '' ) ;
#60 = DIRECTION ( 'NONE',  ( 0.0000000000000000000, 0.0000000000000000000, 1.000000000000000000 ) ) ;
#61 = ORIENTED_EDGE ( 'NONE', *, *, #41, .F. ) ;
#62 = DIRECTION ( 'NONE',  ( 1.000000000000000000, 0.0000000000000000000, 0.0000000000000000000 ) ) ;
#63 = ORIENTED_EDGE ( 'NONE', *, *, #30, .F. ) ;
#64 = DIRECTION ( 'NONE',  ( 0.0000000000000000000, 0.0000000000000000000, 1.000000000000000000 ) ) ;
#65 = AXIS2_PLACEMENT_3D ( 'NONE', #130, #144, #174 ) ;
#66 = CARTESIAN_POINT ( 'NONE',  ( 0.0000000000000000000, 0.0000000000000000000, -1.250000000000000000 ) ) ;
#67 = FACE_OUTER_BOUND ( 'NONE', #116, .T. ) ;
#68 = PERSON_AND_ORGANIZATION ( #171, #120 ) ;
#69 = APPROVAL ( #22, 'UNSPECIFIED' ) ;
#70 = PERSON_AND_ORGANIZATION ( #171, #120 ) ;
#71 = DIRECTION ( 'NONE',  ( 1.000000000000000000, 0.0000000000000000000, 0.0000000000000000000 ) ) ;
#72 = LOCAL_TIME ( 10, 43, 21.00000000000000000, #17 ) ;
#73 = DATE_TIME_ROLE ( 'creation_date' ) ;
#74 = APPLICATION_PROTOCOL_DEFINITION ( 'international standard', 'config_control_design', 1994, #125 ) ;
#75 = ADVANCED_FACE ( 'NONE', ( #67 ), #91, .T. ) ;
#76 = VERTEX_POINT ( 'NONE', #162 ) ;
#77 = CALENDAR_DATE ( 2017, 1, 2 ) ;
#78 = ORIENTED_EDGE ( 'NONE', *, *, #132, .F. ) ;
#79 = APPROVAL_PERSON_ORGANIZATION ( #84, #151, #158 ) ;
#80 = CC_DESIGN_PERSON_AND_ORGANIZATION_ASSIGNMENT ( #108, #85, ( #11 ) ) ;
#81 = APPROVAL_DATE_TIME ( #138, #151 ) ;
#82 = CALENDAR_DATE ( 2017, 1, 2 ) ;
#83 = AXIS2_PLACEMENT_3D ( 'NONE', #105, #129, #49 ) ;
#84 = PERSON_AND_ORGANIZATION ( #171, #120 ) ;
#85 = PERSON_AND_ORGANIZATION_ROLE ( 'design_supplier' ) ;
#86 = MECHANICAL_CONTEXT ( 'NONE', #114, 'mechanical' ) ;
#87 = CIRCLE ( 'NONE', #95, 5.000000000000000000 ) ;
#88 = CALENDAR_DATE ( 2017, 1, 2 ) ;
#89 = PLANE ( 'NONE',  #52 ) ;
#90 = APPROVAL ( #94, 'UNSPECIFIED' ) ;
#91 = PLANE ( 'NONE',  #83 ) ;
#92 = CALENDAR_DATE ( 2017, 1, 2 ) ;
#93 = CYLINDRICAL_SURFACE ( 'NONE', #121, 5.000000000000000000 ) ;
#94 = APPROVAL_STATUS ( 'not_yet_approved' ) ;
#95 = AXIS2_PLACEMENT_3D ( 'NONE', #66, #6, #154 ) ;
#96 = ORIENTED_EDGE ( 'NONE', *, *, #153, .F. ) ;
#97 = VERTEX_POINT ( 'NONE', #106 ) ;
#98 = COORDINATED_UNIVERSAL_TIME_OFFSET ( 5, 0, .BEHIND. ) ;
#99 = ORIENTED_EDGE ( 'NONE', *, *, #115, .T. ) ;
#100 = PERSON_AND_ORGANIZATION_ROLE ( 'design_owner' ) ;
#101 = CARTESIAN_POINT ( 'NONE',  ( -5.000000000000000000, 6.123233995736766300E-016, -1.250000000000000000 ) ) ;
#102 = LINE ( 'NONE', #35, #127 ) ;
#103 = LOCAL_TIME ( 10, 43, 21.00000000000000000, #3 ) ;
#104 = DIRECTION ( 'NONE',  ( 0.0000000000000000000, 0.0000000000000000000, 1.000000000000000000 ) ) ;
#105 = CARTESIAN_POINT ( 'NONE',  ( 0.0000000000000000000, 0.0000000000000000000, 0.0000000000000000000 ) ) ;
#106 = CARTESIAN_POINT ( 'NONE',  ( -5.000000000000000000, 6.123233995736766300E-016, 0.0000000000000000000 ) ) ;
#107 = FACE_OUTER_BOUND ( 'NONE', #137, .T. ) ;
#108 = PERSON_AND_ORGANIZATION ( #171, #120 ) ;
#109 = CC_DESIGN_SECURITY_CLASSIFICATION ( #58, ( #11 ) ) ;
#110 = CC_DESIGN_APPROVAL ( #90, ( #58 ) ) ;
#111 = PRODUCT_DEFINITION_SHAPE ( 'NONE', 'NONE',  #140 ) ;
#112 = FACE_OUTER_BOUND ( 'NONE', #1, .T. ) ;
#113 = PERSON_AND_ORGANIZATION_ROLE ( 'classification_officer' ) ;
#114 = APPLICATION_CONTEXT ( 'configuration controlled 3d designs of mechanical parts and assemblies' ) ;
#115 = EDGE_CURVE ( 'NONE', #76, #97, #24, .T. ) ;
#116 = EDGE_LOOP ( 'NONE', ( #99, #38 ) ) ;
#117 = CARTESIAN_POINT ( 'NONE',  ( 0.0000000000000000000, 0.0000000000000000000, -1.250000000000000000 ) ) ;
#118 = CC_DESIGN_APPROVAL ( #69, ( #11 ) ) ;
#119 = CARTESIAN_POINT ( 'NONE',  ( 0.0000000000000000000, 0.0000000000000000000, -1.250000000000000000 ) ) ;
#120 = ORGANIZATION ( 'UNSPECIFIED', 'UNSPECIFIED', '' ) ;
#121 = AXIS2_PLACEMENT_3D ( 'NONE', #117, #173, #46 ) ;
#122 = SHAPE_DEFINITION_REPRESENTATION ( #111, #55 ) ;
#123 = AXIS2_PLACEMENT_3D ( 'NONE', #145, #146, #71 ) ;
#124 = DATE_AND_TIME ( #88, #103 ) ;
#125 = APPLICATION_CONTEXT ( 'configuration controlled 3d designs of mechanical parts and assemblies' ) ;
#126 =( NAMED_UNIT ( * ) PLANE_ANGLE_UNIT ( ) SI_UNIT ( $, .RADIAN. ) );
#127 = VECTOR ( 'NONE', #26, 1000.000000000000000 ) ;
#128 = LOCAL_TIME ( 10, 43, 21.00000000000000000, #98 ) ;
#129 = DIRECTION ( 'NONE',  ( 0.0000000000000000000, 0.0000000000000000000, 1.000000000000000000 ) ) ;
#130 = CARTESIAN_POINT ( 'NONE',  ( 0.0000000000000000000, 0.0000000000000000000, 0.0000000000000000000 ) ) ;
#131 = LINE ( 'NONE', #101, #150 ) ;
#132 = EDGE_CURVE ( 'NONE', #97, #76, #165, .T. ) ;
#133 = EDGE_LOOP ( 'NONE', ( #29, #152, #147, #170 ) ) ;
#134 = APPROVAL_PERSON_ORGANIZATION ( #39, #90, #167 ) ;
#135 = PRODUCT_RELATED_PRODUCT_CATEGORY ( 'detail', '', ( #10 ) ) ;
#136 = CLOSED_SHELL ( 'NONE', ( #45, #25, #50, #75 ) ) ;
#137 = EDGE_LOOP ( 'NONE', ( #61, #96 ) ) ;
#138 = DATE_AND_TIME ( #43, #18 ) ;
#139 =( NAMED_UNIT ( * ) SI_UNIT ( $, .STERADIAN. ) SOLID_ANGLE_UNIT ( ) );
#140 = PRODUCT_DEFINITION ( 'UNKNOWN', '', #11, #31 ) ;
#141 = PERSON_AND_ORGANIZATION_ROLE ( 'creator' ) ;
#142 = PERSON_AND_ORGANIZATION ( #171, #120 ) ;
#143 = DIRECTION ( 'NONE',  ( 1.000000000000000000, 0.0000000000000000000, 0.0000000000000000000 ) ) ;
#144 = DIRECTION ( 'NONE',  ( 0.0000000000000000000, 0.0000000000000000000, 1.000000000000000000 ) ) ;
#145 = CARTESIAN_POINT ( 'NONE',  ( 0.0000000000000000000, 0.0000000000000000000, 0.0000000000000000000 ) ) ;
#146 = DIRECTION ( 'NONE',  ( 0.0000000000000000000, 0.0000000000000000000, 1.000000000000000000 ) ) ;
#147 = ORIENTED_EDGE ( 'NONE', *, *, #115, .F. ) ;
#148 = LOCAL_TIME ( 10, 43, 21.00000000000000000, #33 ) ;
#149 = DATE_TIME_ROLE ( 'classification_date' ) ;
#150 = VECTOR ( 'NONE', #60, 1000.000000000000000 ) ;
#151 = APPROVAL ( #57, 'UNSPECIFIED' ) ;
#152 = ORIENTED_EDGE ( 'NONE', *, *, #30, .T. ) ;
#153 = EDGE_CURVE ( 'NONE', #40, #4, #87, .T. ) ;
#154 = DIRECTION ( 'NONE',  ( 1.000000000000000000, 0.0000000000000000000, 0.0000000000000000000 ) ) ;
#155 = CC_DESIGN_DATE_AND_TIME_ASSIGNMENT ( #124, #149, ( #58 ) ) ;
#156 = APPLICATION_PROTOCOL_DEFINITION ( 'international standard', 'config_control_design', 1994, #114 ) ;
#157 = CC_DESIGN_PERSON_AND_ORGANIZATION_ASSIGNMENT ( #70, #113, ( #58 ) ) ;
#158 = APPROVAL_ROLE ( '' ) ;
#159 = PERSON_AND_ORGANIZATION_ROLE ( 'creator' ) ;
#160 = CC_DESIGN_APPROVAL ( #151, ( #140 ) ) ;
#161 = CARTESIAN_POINT ( 'NONE',  ( 0.0000000000000000000, 0.0000000000000000000, -1.250000000000000000 ) ) ;
#162 = CARTESIAN_POINT ( 'NONE',  ( 5.000000000000000000, 0.0000000000000000000, 0.0000000000000000000 ) ) ;
#163 = APPROVAL_DATE_TIME ( #53, #90 ) ;
#164 = DIRECTION ( 'NONE',  ( 1.000000000000000000, 0.0000000000000000000, 0.0000000000000000000 ) ) ;
#165 = CIRCLE ( 'NONE', #7, 5.000000000000000000 ) ;
#166 = MANIFOLD_SOLID_BREP ( 'Extrude1', #136 ) ;
#167 = APPROVAL_ROLE ( '' ) ;
#168 = APPROVAL_PERSON_ORGANIZATION ( #2, #69, #59 ) ;
#169 = CC_DESIGN_PERSON_AND_ORGANIZATION_ASSIGNMENT ( #12, #141, ( #140 ) ) ;
#170 = ORIENTED_EDGE ( 'NONE', *, *, #23, .F. ) ;
#171 = PERSON ( 'UNSPECIFIED', 'UNSPECIFIED', 'UNSPECIFIED', ('UNSPECIFIED'), ('UNSPECIFIED'), ('UNSPECIFIED') ) ;
#172 = DIRECTION ( 'NONE',  ( 0.0000000000000000000, 0.0000000000000000000, 1.000000000000000000 ) ) ;
#173 = DIRECTION ( 'NONE',  ( 0.0000000000000000000, 0.0000000000000000000, 1.000000000000000000 ) ) ;
#174 = DIRECTION ( 'NONE',  ( 1.000000000000000000, 0.0000000000000000000, 0.0000000000000000000 ) ) ;
#175 = CC_DESIGN_DATE_AND_TIME_ASSIGNMENT ( #9, #73, ( #140 ) ) ;
ENDSEC;
END-ISO-10303-21;
