ISO-10303-21;
HEADER;
FILE_DESCRIPTION (( 'STEP AP203' ),
    '1' );
FILE_NAME ('Web Model 39232_39253.step',
    '2018-07-25T17:07:24',
    ( '' ),
    ( '' ),
    'SwSTEP 2.0',
    'SolidWorks 2016',
    '' );
FILE_SCHEMA (( 'CONFIG_CONTROL_DESIGN' ));
ENDSEC;

DATA;
#1 = COORDINATED_UNIVERSAL_TIME_OFFSET ( 5, 0, .BEHIND. ) ;
#2 = CARTESIAN_POINT ( 'NONE',  ( 0.0000000000000000000, 0.0000000000000000000, -1.600000000000000100 ) ) ;
#3 = EDGE_CURVE ( 'NONE', #93, #28, #157, .T. ) ;
#4 = APPLICATION_PROTOCOL_DEFINITION ( 'international standard', 'config_control_design', 1994, #94 ) ;
#5 = MECHANICAL_CONTEXT ( 'NONE', #149, 'mechanical' ) ;
#6 = VERTEX_POINT ( 'NONE', #41 ) ;
#7 = SECURITY_CLASSIFICATION_LEVEL ( 'unclassified' ) ;
#8 = DIRECTION ( 'NONE',  ( 1.000000000000000000, 0.0000000000000000000, 0.0000000000000000000 ) ) ;
#9 = PERSON_AND_ORGANIZATION ( #151, #143 ) ;
#10 = LINE ( 'NONE', #31, #163 ) ;
#11 = AXIS2_PLACEMENT_3D ( 'NONE', #90, #43, #54 ) ;
#12 = ORIENTED_EDGE ( 'NONE', *, *, #13, .F. ) ;
#13 = EDGE_CURVE ( 'NONE', #6, #28, #74, .T. ) ;
#14 = SHAPE_DEFINITION_REPRESENTATION ( #40, #131 ) ;
#15 = DIRECTION ( 'NONE',  ( 1.000000000000000000, 0.0000000000000000000, 0.0000000000000000000 ) ) ;
#16 = AXIS2_PLACEMENT_3D ( 'NONE', #174, #104, #117 ) ;
#17 = DIRECTION ( 'NONE',  ( 0.0000000000000000000, 0.0000000000000000000, 1.000000000000000000 ) ) ;
#18 = ADVANCED_FACE ( 'NONE', ( #68 ), #35, .T. ) ;
#19 = ORIENTED_EDGE ( 'NONE', *, *, #24, .F. ) ;
#20 = APPROVAL_ROLE ( '' ) ;
#21 = DATE_TIME_ROLE ( 'creation_date' ) ;
#22 =( NAMED_UNIT ( * ) PLANE_ANGLE_UNIT ( ) SI_UNIT ( $, .RADIAN. ) );
#23 = VECTOR ( 'NONE', #88, 1000.000000000000000 ) ;
#24 = EDGE_CURVE ( 'NONE', #55, #93, #10, .T. ) ;
#25 = ORIENTED_EDGE ( 'NONE', *, *, #113, .F. ) ;
#26 = PERSON_AND_ORGANIZATION ( #151, #143 ) ;
#27 = COORDINATED_UNIVERSAL_TIME_OFFSET ( 5, 0, .BEHIND. ) ;
#28 = VERTEX_POINT ( 'NONE', #44 ) ;
#29 = EDGE_CURVE ( 'NONE', #55, #6, #125, .T. ) ;
#30 = COORDINATED_UNIVERSAL_TIME_OFFSET ( 5, 0, .BEHIND. ) ;
#31 = CARTESIAN_POINT ( 'NONE',  ( -6.349999999999999600, 0.0000000000000000000, 1.600000000000000100 ) ) ;
#32 = CARTESIAN_POINT ( 'NONE',  ( 0.0000000000000000000, 0.0000000000000000000, 0.0000000000000000000 ) ) ;
#33 = DIRECTION ( 'NONE',  ( 1.000000000000000000, 0.0000000000000000000, 0.0000000000000000000 ) ) ;
#34 = CALENDAR_DATE ( 2018, 25, 7 ) ;
#35 = CYLINDRICAL_SURFACE ( 'NONE', #101, 6.349999999999999600 ) ;
#36 = MANIFOLD_SOLID_BREP ( 'Boss-Extrude1', #65 ) ;
#37 = PERSON_AND_ORGANIZATION_ROLE ( 'creator' ) ;
#38 = CC_DESIGN_DATE_AND_TIME_ASSIGNMENT ( #159, #136, ( #141 ) ) ;
#39 = APPROVAL_PERSON_ORGANIZATION ( #26, #63, #167 ) ;
#40 = PRODUCT_DEFINITION_SHAPE ( 'NONE', 'NONE',  #97 ) ;
#41 = CARTESIAN_POINT ( 'NONE',  ( 6.349999999999999600, 7.776507174585692200E-016, 1.600000000000000100 ) ) ;
#42 = EDGE_LOOP ( 'NONE', ( #155, #84 ) ) ;
#43 = DIRECTION ( 'NONE',  ( -0.0000000000000000000, -0.0000000000000000000, -1.000000000000000000 ) ) ;
#44 = CARTESIAN_POINT ( 'NONE',  ( 6.349999999999999600, 7.776507174585692200E-016, -1.600000000000000100 ) ) ;
#45 = APPROVAL ( #60, 'UNSPECIFIED' ) ;
#46 = PERSON_AND_ORGANIZATION ( #151, #143 ) ;
#47 = DIRECTION ( 'NONE',  ( 0.0000000000000000000, 0.0000000000000000000, 1.000000000000000000 ) ) ;
#48 = PRODUCT ( 'Web Model 39232_39253', 'Web Model 39232_39253', '', ( #5 ) ) ;
#49 = CC_DESIGN_PERSON_AND_ORGANIZATION_ASSIGNMENT ( #46, #51, ( #171 ) ) ;
#50 = ORIENTED_EDGE ( 'NONE', *, *, #3, .T. ) ;
#51 = PERSON_AND_ORGANIZATION_ROLE ( 'creator' ) ;
#52 = LOCAL_TIME ( 13, 7, 24.00000000000000000, #92 ) ;
#53 = APPROVAL_PERSON_ORGANIZATION ( #150, #95, #72 ) ;
#54 = DIRECTION ( 'NONE',  ( -1.000000000000000000, 0.0000000000000000000, 0.0000000000000000000 ) ) ;
#55 = VERTEX_POINT ( 'NONE', #148 ) ;
#56 = CARTESIAN_POINT ( 'NONE',  ( 0.0000000000000000000, 0.0000000000000000000, -1.600000000000000100 ) ) ;
#57 = APPROVAL_PERSON_ORGANIZATION ( #142, #45, #20 ) ;
#58 = DIRECTION ( 'NONE',  ( 1.000000000000000000, 0.0000000000000000000, 0.0000000000000000000 ) ) ;
#59 = ADVANCED_FACE ( 'NONE', ( #146 ), #120, .T. ) ;
#60 = APPROVAL_STATUS ( 'not_yet_approved' ) ;
#61 = PERSON_AND_ORGANIZATION_ROLE ( 'design_owner' ) ;
#62 = DATE_AND_TIME ( #67, #71 ) ;
#63 = APPROVAL ( #81, 'UNSPECIFIED' ) ;
#64 = LOCAL_TIME ( 13, 7, 24.00000000000000000, #27 ) ;
#65 = CLOSED_SHELL ( 'NONE', ( #59, #18, #111, #73 ) ) ;
#66 = CC_DESIGN_APPROVAL ( #63, ( #171 ) ) ;
#67 = CALENDAR_DATE ( 2018, 25, 7 ) ;
#68 = FACE_OUTER_BOUND ( 'NONE', #80, .T. ) ;
#69 = PLANE ( 'NONE',  #107 ) ;
#70 = CC_DESIGN_SECURITY_CLASSIFICATION ( #141, ( #171 ) ) ;
#71 = LOCAL_TIME ( 13, 7, 24.00000000000000000, #1 ) ;
#72 = APPROVAL_ROLE ( '' ) ;
#73 = ADVANCED_FACE ( 'NONE', ( #82 ), #69, .F. ) ;
#74 = LINE ( 'NONE', #106, #23 ) ;
#75 = LOCAL_TIME ( 13, 7, 24.00000000000000000, #30 ) ;
#76 = CC_DESIGN_PERSON_AND_ORGANIZATION_ASSIGNMENT ( #156, #98, ( #171 ) ) ;
#77 = DIRECTION ( 'NONE',  ( 0.0000000000000000000, 0.0000000000000000000, 1.000000000000000000 ) ) ;
#78 = CARTESIAN_POINT ( 'NONE',  ( -6.349999999999999600, 0.0000000000000000000, -1.600000000000000100 ) ) ;
#79 = PLANE ( 'NONE',  #16 ) ;
#80 = EDGE_LOOP ( 'NONE', ( #12, #109, #144, #50 ) ) ;
#81 = APPROVAL_STATUS ( 'not_yet_approved' ) ;
#82 = FACE_OUTER_BOUND ( 'NONE', #124, .T. ) ;
#83 = CIRCLE ( 'NONE', #91, 6.349999999999999600 ) ;
#84 = ORIENTED_EDGE ( 'NONE', *, *, #113, .T. ) ;
#85 = DESIGN_CONTEXT ( 'detailed design', #94, 'design' ) ;
#86 = ORIENTED_EDGE ( 'NONE', *, *, #13, .T. ) ;
#87 = DIRECTION ( 'NONE',  ( 1.000000000000000000, 0.0000000000000000000, 0.0000000000000000000 ) ) ;
#88 = DIRECTION ( 'NONE',  ( -0.0000000000000000000, -0.0000000000000000000, -1.000000000000000000 ) ) ;
#89 = COORDINATED_UNIVERSAL_TIME_OFFSET ( 5, 0, .BEHIND. ) ;
#90 = CARTESIAN_POINT ( 'NONE',  ( 0.0000000000000000000, 0.0000000000000000000, 1.600000000000000100 ) ) ;
#91 = AXIS2_PLACEMENT_3D ( 'NONE', #175, #17, #33 ) ;
#92 = COORDINATED_UNIVERSAL_TIME_OFFSET ( 5, 0, .BEHIND. ) ;
#93 = VERTEX_POINT ( 'NONE', #78 ) ;
#94 = APPLICATION_CONTEXT ( 'configuration controlled 3d designs of mechanical parts and assemblies' ) ;
#95 = APPROVAL ( #135, 'UNSPECIFIED' ) ;
#96 = DATE_AND_TIME ( #122, #160 ) ;
#97 = PRODUCT_DEFINITION ( 'UNKNOWN', '', #171, #85 ) ;
#98 = PERSON_AND_ORGANIZATION_ROLE ( 'design_supplier' ) ;
#99 = ORIENTED_EDGE ( 'NONE', *, *, #134, .T. ) ;
#100 = PRODUCT_RELATED_PRODUCT_CATEGORY ( 'detail', '', ( #48 ) ) ;
#101 = AXIS2_PLACEMENT_3D ( 'NONE', #128, #119, #162 ) ;
#102 = CIRCLE ( 'NONE', #169, 6.349999999999999600 ) ;
#103 = AXIS2_PLACEMENT_3D ( 'NONE', #32, #47, #58 ) ;
#104 = DIRECTION ( 'NONE',  ( 0.0000000000000000000, 0.0000000000000000000, 1.000000000000000000 ) ) ;
#105 = APPROVAL_DATE_TIME ( #96, #45 ) ;
#106 = CARTESIAN_POINT ( 'NONE',  ( 6.349999999999999600, 7.776507174585692200E-016, 1.600000000000000100 ) ) ;
#107 = AXIS2_PLACEMENT_3D ( 'NONE', #56, #116, #172 ) ;
#108 =( NAMED_UNIT ( * ) SI_UNIT ( $, .STERADIAN. ) SOLID_ANGLE_UNIT ( ) );
#109 = ORIENTED_EDGE ( 'NONE', *, *, #29, .F. ) ;
#110 = CC_DESIGN_APPROVAL ( #95, ( #97 ) ) ;
#111 = ADVANCED_FACE ( 'NONE', ( #168 ), #79, .T. ) ;
#112 = PERSON_AND_ORGANIZATION ( #151, #143 ) ;
#113 = EDGE_CURVE ( 'NONE', #6, #55, #83, .T. ) ;
#114 =( GEOMETRIC_REPRESENTATION_CONTEXT ( 3 ) GLOBAL_UNCERTAINTY_ASSIGNED_CONTEXT ( ( #140 ) ) GLOBAL_UNIT_ASSIGNED_CONTEXT ( ( #165, #22, #108 ) ) REPRESENTATION_CONTEXT ( 'NONE', 'WORKASPACE' ) );
#115 = ORIENTED_EDGE ( 'NONE', *, *, #134, .F. ) ;
#116 = DIRECTION ( 'NONE',  ( 0.0000000000000000000, 0.0000000000000000000, 1.000000000000000000 ) ) ;
#117 = DIRECTION ( 'NONE',  ( 1.000000000000000000, 0.0000000000000000000, -0.0000000000000000000 ) ) ;
#118 = CC_DESIGN_DATE_AND_TIME_ASSIGNMENT ( #173, #21, ( #97 ) ) ;
#119 = DIRECTION ( 'NONE',  ( -0.0000000000000000000, -0.0000000000000000000, -1.000000000000000000 ) ) ;
#120 = CYLINDRICAL_SURFACE ( 'NONE', #11, 6.349999999999999600 ) ;
#121 = DIRECTION ( 'NONE',  ( 0.0000000000000000000, 0.0000000000000000000, 1.000000000000000000 ) ) ;
#122 = CALENDAR_DATE ( 2018, 25, 7 ) ;
#123 = AXIS2_PLACEMENT_3D ( 'NONE', #2, #77, #87 ) ;
#124 = EDGE_LOOP ( 'NONE', ( #161, #115 ) ) ;
#125 = CIRCLE ( 'NONE', #147, 6.349999999999999600 ) ;
#126 = DATE_AND_TIME ( #137, #52 ) ;
#127 = PERSON_AND_ORGANIZATION ( #151, #143 ) ;
#128 = CARTESIAN_POINT ( 'NONE',  ( 0.0000000000000000000, 0.0000000000000000000, 1.600000000000000100 ) ) ;
#129 = CARTESIAN_POINT ( 'NONE',  ( 0.0000000000000000000, 0.0000000000000000000, 1.600000000000000100 ) ) ;
#130 = APPROVAL_DATE_TIME ( #62, #95 ) ;
#131 = ADVANCED_BREP_SHAPE_REPRESENTATION ( 'Web Model 39232_39253', ( #36, #103 ), #114 ) ;
#132 = DIRECTION ( 'NONE',  ( 0.0000000000000000000, 0.0000000000000000000, 1.000000000000000000 ) ) ;
#133 = PERSON_AND_ORGANIZATION_ROLE ( 'classification_officer' ) ;
#134 = EDGE_CURVE ( 'NONE', #28, #93, #102, .T. ) ;
#135 = APPROVAL_STATUS ( 'not_yet_approved' ) ;
#136 = DATE_TIME_ROLE ( 'classification_date' ) ;
#137 = CALENDAR_DATE ( 2018, 25, 7 ) ;
#138 = APPLICATION_PROTOCOL_DEFINITION ( 'international standard', 'config_control_design', 1994, #149 ) ;
#139 = CC_DESIGN_PERSON_AND_ORGANIZATION_ASSIGNMENT ( #9, #133, ( #141 ) ) ;
#140 = UNCERTAINTY_MEASURE_WITH_UNIT (LENGTH_MEASURE( 1.000000000000000100E-005 ), #165, 'distance_accuracy_value', 'NONE');
#141 = SECURITY_CLASSIFICATION ( '', '', #7 ) ;
#142 = PERSON_AND_ORGANIZATION ( #151, #143 ) ;
#143 = ORGANIZATION ( 'UNSPECIFIED', 'UNSPECIFIED', '' ) ;
#144 = ORIENTED_EDGE ( 'NONE', *, *, #24, .T. ) ;
#145 = DIRECTION ( 'NONE',  ( -0.0000000000000000000, -0.0000000000000000000, -1.000000000000000000 ) ) ;
#146 = FACE_OUTER_BOUND ( 'NONE', #170, .T. ) ;
#147 = AXIS2_PLACEMENT_3D ( 'NONE', #129, #132, #15 ) ;
#148 = CARTESIAN_POINT ( 'NONE',  ( -6.349999999999999600, 0.0000000000000000000, 1.600000000000000100 ) ) ;
#149 = APPLICATION_CONTEXT ( 'configuration controlled 3d designs of mechanical parts and assemblies' ) ;
#150 = PERSON_AND_ORGANIZATION ( #151, #143 ) ;
#151 = PERSON ( 'UNSPECIFIED', 'UNSPECIFIED', 'UNSPECIFIED', ('UNSPECIFIED'), ('UNSPECIFIED'), ('UNSPECIFIED') ) ;
#152 = CARTESIAN_POINT ( 'NONE',  ( 0.0000000000000000000, 0.0000000000000000000, -1.600000000000000100 ) ) ;
#153 = APPROVAL_DATE_TIME ( #126, #63 ) ;
#154 = CC_DESIGN_PERSON_AND_ORGANIZATION_ASSIGNMENT ( #112, #61, ( #48 ) ) ;
#155 = ORIENTED_EDGE ( 'NONE', *, *, #29, .T. ) ;
#156 = PERSON_AND_ORGANIZATION ( #151, #143 ) ;
#157 = CIRCLE ( 'NONE', #123, 6.349999999999999600 ) ;
#158 = CC_DESIGN_APPROVAL ( #45, ( #141 ) ) ;
#159 = DATE_AND_TIME ( #34, #64 ) ;
#160 = LOCAL_TIME ( 13, 7, 24.00000000000000000, #89 ) ;
#161 = ORIENTED_EDGE ( 'NONE', *, *, #3, .F. ) ;
#162 = DIRECTION ( 'NONE',  ( -1.000000000000000000, 0.0000000000000000000, 0.0000000000000000000 ) ) ;
#163 = VECTOR ( 'NONE', #145, 1000.000000000000000 ) ;
#164 = CC_DESIGN_PERSON_AND_ORGANIZATION_ASSIGNMENT ( #127, #37, ( #97 ) ) ;
#165 =( LENGTH_UNIT ( ) NAMED_UNIT ( * ) SI_UNIT ( .MILLI., .METRE. ) );
#166 = CALENDAR_DATE ( 2018, 25, 7 ) ;
#167 = APPROVAL_ROLE ( '' ) ;
#168 = FACE_OUTER_BOUND ( 'NONE', #42, .T. ) ;
#169 = AXIS2_PLACEMENT_3D ( 'NONE', #152, #121, #8 ) ;
#170 = EDGE_LOOP ( 'NONE', ( #25, #86, #99, #19 ) ) ;
#171 = PRODUCT_DEFINITION_FORMATION_WITH_SPECIFIED_SOURCE ( 'ANY', '', #48, .NOT_KNOWN. ) ;
#172 = DIRECTION ( 'NONE',  ( 1.000000000000000000, 0.0000000000000000000, -0.0000000000000000000 ) ) ;
#173 = DATE_AND_TIME ( #166, #75 ) ;
#174 = CARTESIAN_POINT ( 'NONE',  ( 0.0000000000000000000, 0.0000000000000000000, 1.600000000000000100 ) ) ;
#175 = CARTESIAN_POINT ( 'NONE',  ( 0.0000000000000000000, 0.0000000000000000000, 1.600000000000000100 ) ) ;
ENDSEC;
END-ISO-10303-21;
