ISO-10303-21;
HEADER;
FILE_DESCRIPTION (( 'STEP AP203' ),
    '1' );
FILE_NAME ('Web Model 15404_15407.step',
    '2022-03-11T18:21:06',
    ( '' ),
    ( '' ),
    'SwSTEP 2.0',
    'SolidWorks 2021',
    '' );
FILE_SCHEMA (( 'CONFIG_CONTROL_DESIGN' ));
ENDSEC;

DATA;
#1 = CC_DESIGN_DATE_AND_TIME_ASSIGNMENT ( #127, #25, ( #152 ) ) ;
#2 = CARTESIAN_POINT ( 'NONE',  ( -2.500000000000000000, 0.000000000000000000, 0.000000000000000000 ) ) ;
#3 = EDGE_LOOP ( 'NONE', ( #17, #16 ) ) ;
#4 = LINE ( 'NONE', #48, #31 ) ;
#5 = APPLICATION_PROTOCOL_DEFINITION ( 'international standard', 'config_control_design', 1994, #74 ) ;
#6 = DIRECTION ( 'NONE',  ( -1.000000000000000000, -0.000000000000000000, -0.000000000000000000 ) ) ;
#7 = CARTESIAN_POINT ( 'NONE',  ( -2.500000000000000000, 0.000000000000000000, 0.000000000000000000 ) ) ;
#8 =( GEOMETRIC_REPRESENTATION_CONTEXT ( 3 ) GLOBAL_UNCERTAINTY_ASSIGNED_CONTEXT ( ( #124 ) ) GLOBAL_UNIT_ASSIGNED_CONTEXT ( ( #54, #136, #165 ) ) REPRESENTATION_CONTEXT ( 'NONE', 'WORKASPACE' ) );
#9 = PRODUCT ( 'Web Model 15404_15407', 'Web Model 15404_15407', '', ( #71 ) ) ;
#10 = CIRCLE ( 'NONE', #40, 25.39999999999999858 ) ;
#11 = APPROVAL_PERSON_ORGANIZATION ( #113, #172, #76 ) ;
#12 = COORDINATED_UNIVERSAL_TIME_OFFSET ( 5, 0, .BEHIND. ) ;
#13 = PERSON_AND_ORGANIZATION ( #69, #86 ) ;
#14 = PLANE ( 'NONE',  #117 ) ;
#15 = ADVANCED_FACE ( 'NONE', ( #148 ), #66, .T. ) ;
#16 = ORIENTED_EDGE ( 'NONE', *, *, #38, .F. ) ;
#17 = ORIENTED_EDGE ( 'NONE', *, *, #60, .F. ) ;
#18 = AXIS2_PLACEMENT_3D ( 'NONE', #7, #36, #125 ) ;
#19 = DIRECTION ( 'NONE',  ( 0.000000000000000000, 0.000000000000000000, 1.000000000000000000 ) ) ;
#20 = DIRECTION ( 'NONE',  ( -1.000000000000000000, -0.000000000000000000, -0.000000000000000000 ) ) ;
#21 = CARTESIAN_POINT ( 'NONE',  ( 2.500000000000000000, 0.000000000000000000, 0.000000000000000000 ) ) ;
#22 = LINE ( 'NONE', #111, #168 ) ;
#23 = APPROVAL ( #161, 'UNSPECIFIED' ) ;
#24 = CC_DESIGN_APPROVAL ( #23, ( #140 ) ) ;
#25 = DATE_TIME_ROLE ( 'creation_date' ) ;
#26 = AXIS2_PLACEMENT_3D ( 'NONE', #27, #29, #128 ) ;
#27 = CARTESIAN_POINT ( 'NONE',  ( 2.500000000000000000, 0.000000000000000000, 0.000000000000000000 ) ) ;
#28 = ORIENTED_EDGE ( 'NONE', *, *, #144, .F. ) ;
#29 = DIRECTION ( 'NONE',  ( 1.000000000000000000, 0.000000000000000000, 0.000000000000000000 ) ) ;
#30 = CC_DESIGN_PERSON_AND_ORGANIZATION_ASSIGNMENT ( #85, #84, ( #9 ) ) ;
#31 = VECTOR ( 'NONE', #6, 1000.000000000000000 ) ;
#32 = CC_DESIGN_APPROVAL ( #159, ( #152 ) ) ;
#33 = ORIENTED_EDGE ( 'NONE', *, *, #144, .T. ) ;
#34 = CARTESIAN_POINT ( 'NONE',  ( 2.500000000000000000, 0.000000000000000000, 25.39999999999999858 ) ) ;
#35 = LOCAL_TIME ( 13, 21, 6.000000000000000000, #12 ) ;
#36 = DIRECTION ( 'NONE',  ( 1.000000000000000000, 0.000000000000000000, 0.000000000000000000 ) ) ;
#37 = PERSON_AND_ORGANIZATION ( #69, #86 ) ;
#38 = EDGE_CURVE ( 'NONE', #63, #163, #10, .T. ) ;
#39 = EDGE_CURVE ( 'NONE', #132, #133, #77, .T. ) ;
#40 = AXIS2_PLACEMENT_3D ( 'NONE', #47, #43, #130 ) ;
#41 = PERSON_AND_ORGANIZATION ( #69, #86 ) ;
#42 = CALENDAR_DATE ( 2022, 11, 3 ) ;
#43 = DIRECTION ( 'NONE',  ( 1.000000000000000000, 0.000000000000000000, 0.000000000000000000 ) ) ;
#44 = COORDINATED_UNIVERSAL_TIME_OFFSET ( 5, 0, .BEHIND. ) ;
#45 = PERSON_AND_ORGANIZATION ( #69, #86 ) ;
#46 = ORIENTED_EDGE ( 'NONE', *, *, #102, .F. ) ;
#47 = CARTESIAN_POINT ( 'NONE',  ( -2.500000000000000000, 0.000000000000000000, 0.000000000000000000 ) ) ;
#48 = CARTESIAN_POINT ( 'NONE',  ( 2.500000000000000000, 0.000000000000000000, 25.39999999999999858 ) ) ;
#49 = CYLINDRICAL_SURFACE ( 'NONE', #121, 25.39999999999999858 ) ;
#50 = CARTESIAN_POINT ( 'NONE',  ( 2.500000000000000000, 0.000000000000000000, 0.000000000000000000 ) ) ;
#51 = APPROVAL_DATE_TIME ( #81, #23 ) ;
#52 = CC_DESIGN_PERSON_AND_ORGANIZATION_ASSIGNMENT ( #45, #147, ( #103 ) ) ;
#53 = DIRECTION ( 'NONE',  ( -1.000000000000000000, -0.000000000000000000, -0.000000000000000000 ) ) ;
#54 =( LENGTH_UNIT ( ) NAMED_UNIT ( * ) SI_UNIT ( .MILLI., .METRE. ) );
#55 = APPROVAL_STATUS ( 'not_yet_approved' ) ;
#56 = ADVANCED_FACE ( 'NONE', ( #82 ), #14, .F. ) ;
#57 = DIRECTION ( 'NONE',  ( -1.000000000000000000, -0.000000000000000000, -0.000000000000000000 ) ) ;
#58 = DIRECTION ( 'NONE',  ( 0.000000000000000000, 0.000000000000000000, -1.000000000000000000 ) ) ;
#59 = LOCAL_TIME ( 13, 21, 6.000000000000000000, #72 ) ;
#60 = EDGE_CURVE ( 'NONE', #163, #63, #70, .T. ) ;
#61 = CALENDAR_DATE ( 2022, 11, 3 ) ;
#62 = COORDINATED_UNIVERSAL_TIME_OFFSET ( 5, 0, .BEHIND. ) ;
#63 = VERTEX_POINT ( 'NONE', #99 ) ;
#64 = APPROVAL_PERSON_ORGANIZATION ( #41, #23, #101 ) ;
#65 = APPLICATION_CONTEXT ( 'configuration controlled 3d designs of mechanical parts and assemblies' ) ;
#66 = CYLINDRICAL_SURFACE ( 'NONE', #105, 25.39999999999999858 ) ;
#67 = CC_DESIGN_PERSON_AND_ORGANIZATION_ASSIGNMENT ( #73, #122, ( #152 ) ) ;
#68 = ORIENTED_EDGE ( 'NONE', *, *, #169, .T. ) ;
#69 = PERSON ( 'UNSPECIFIED', 'UNSPECIFIED', 'UNSPECIFIED', ('UNSPECIFIED'), ('UNSPECIFIED'), ('UNSPECIFIED') ) ;
#70 = CIRCLE ( 'NONE', #18, 25.39999999999999858 ) ;
#71 = MECHANICAL_CONTEXT ( 'NONE', #65, 'mechanical' ) ;
#72 = COORDINATED_UNIVERSAL_TIME_OFFSET ( 5, 0, .BEHIND. ) ;
#73 = PERSON_AND_ORGANIZATION ( #69, #86 ) ;
#74 = APPLICATION_CONTEXT ( 'configuration controlled 3d designs of mechanical parts and assemblies' ) ;
#75 = SECURITY_CLASSIFICATION_LEVEL ( 'unclassified' ) ;
#76 = APPROVAL_ROLE ( '' ) ;
#77 = CIRCLE ( 'NONE', #26, 25.39999999999999858 ) ;
#78 = APPROVAL_PERSON_ORGANIZATION ( #37, #159, #137 ) ;
#79 = EDGE_LOOP ( 'NONE', ( #46, #149, #68, #104 ) ) ;
#80 = EDGE_LOOP ( 'NONE', ( #146, #33 ) ) ;
#81 = DATE_AND_TIME ( #42, #112 ) ;
#82 = FACE_OUTER_BOUND ( 'NONE', #3, .T. ) ;
#83 = FACE_OUTER_BOUND ( 'NONE', #80, .T. ) ;
#84 = PERSON_AND_ORGANIZATION_ROLE ( 'design_owner' ) ;
#85 = PERSON_AND_ORGANIZATION ( #69, #86 ) ;
#86 = ORGANIZATION ( 'UNSPECIFIED', 'UNSPECIFIED', '' ) ;
#87 = DIRECTION ( 'NONE',  ( 0.000000000000000000, 0.000000000000000000, -1.000000000000000000 ) ) ;
#88 = CC_DESIGN_PERSON_AND_ORGANIZATION_ASSIGNMENT ( #13, #171, ( #140 ) ) ;
#89 = PRODUCT_RELATED_PRODUCT_CATEGORY ( 'detail', '', ( #9 ) ) ;
#90 = ADVANCED_FACE ( 'NONE', ( #98 ), #49, .T. ) ;
#91 = COORDINATED_UNIVERSAL_TIME_OFFSET ( 5, 0, .BEHIND. ) ;
#92 = CALENDAR_DATE ( 2022, 11, 3 ) ;
#93 = DIRECTION ( 'NONE',  ( 0.000000000000000000, 0.000000000000000000, 1.000000000000000000 ) ) ;
#94 = ORIENTED_EDGE ( 'NONE', *, *, #102, .T. ) ;
#95 = EDGE_LOOP ( 'NONE', ( #28, #94, #96, #134 ) ) ;
#96 = ORIENTED_EDGE ( 'NONE', *, *, #38, .T. ) ;
#97 = DIRECTION ( 'NONE',  ( 1.000000000000000000, 0.000000000000000000, 0.000000000000000000 ) ) ;
#98 = FACE_OUTER_BOUND ( 'NONE', #95, .T. ) ;
#99 = CARTESIAN_POINT ( 'NONE',  ( -2.500000000000000000, 3.110602869834276865E-15, -25.39999999999999858 ) ) ;
#100 = AXIS2_PLACEMENT_3D ( 'NONE', #21, #155, #58 ) ;
#101 = APPROVAL_ROLE ( '' ) ;
#102 = EDGE_CURVE ( 'NONE', #133, #63, #22, .T. ) ;
#103 = PRODUCT_DEFINITION_FORMATION_WITH_SPECIFIED_SOURCE ( 'ANY', '', #9, .NOT_KNOWN. ) ;
#104 = ORIENTED_EDGE ( 'NONE', *, *, #60, .T. ) ;
#105 = AXIS2_PLACEMENT_3D ( 'NONE', #116, #53, #93 ) ;
#106 = DIRECTION ( 'NONE',  ( 0.000000000000000000, 0.000000000000000000, -1.000000000000000000 ) ) ;
#107 = CARTESIAN_POINT ( 'NONE',  ( 0.000000000000000000, 0.000000000000000000, 0.000000000000000000 ) ) ;
#108 = PLANE ( 'NONE',  #151 ) ;
#109 = CLOSED_SHELL ( 'NONE', ( #90, #15, #114, #56 ) ) ;
#110 = DATE_AND_TIME ( #119, #59 ) ;
#111 = CARTESIAN_POINT ( 'NONE',  ( 2.500000000000000000, 3.110602869834276865E-15, -25.39999999999999858 ) ) ;
#112 = LOCAL_TIME ( 13, 21, 6.000000000000000000, #91 ) ;
#113 = PERSON_AND_ORGANIZATION ( #69, #86 ) ;
#114 = ADVANCED_FACE ( 'NONE', ( #83 ), #108, .T. ) ;
#115 = CC_DESIGN_DATE_AND_TIME_ASSIGNMENT ( #143, #129, ( #140 ) ) ;
#116 = CARTESIAN_POINT ( 'NONE',  ( 2.500000000000000000, 0.000000000000000000, 0.000000000000000000 ) ) ;
#117 = AXIS2_PLACEMENT_3D ( 'NONE', #2, #150, #87 ) ;
#118 = CARTESIAN_POINT ( 'NONE',  ( 2.500000000000000000, 0.000000000000000000, 0.000000000000000000 ) ) ;
#119 = CALENDAR_DATE ( 2022, 11, 3 ) ;
#120 = CC_DESIGN_APPROVAL ( #172, ( #103 ) ) ;
#121 = AXIS2_PLACEMENT_3D ( 'NONE', #50, #57, #167 ) ;
#122 = PERSON_AND_ORGANIZATION_ROLE ( 'creator' ) ;
#123 = LOCAL_TIME ( 13, 21, 6.000000000000000000, #62 ) ;
#124 = UNCERTAINTY_MEASURE_WITH_UNIT (LENGTH_MEASURE( 1.000000000000000082E-05 ), #54, 'distance_accuracy_value', 'NONE');
#125 = DIRECTION ( 'NONE',  ( 0.000000000000000000, 0.000000000000000000, -1.000000000000000000 ) ) ;
#126 = PERSON_AND_ORGANIZATION_ROLE ( 'creator' ) ;
#127 = DATE_AND_TIME ( #145, #173 ) ;
#128 = DIRECTION ( 'NONE',  ( 0.000000000000000000, 0.000000000000000000, -1.000000000000000000 ) ) ;
#129 = DATE_TIME_ROLE ( 'classification_date' ) ;
#130 = DIRECTION ( 'NONE',  ( 0.000000000000000000, 0.000000000000000000, -1.000000000000000000 ) ) ;
#131 = APPROVAL_DATE_TIME ( #174, #172 ) ;
#132 = VERTEX_POINT ( 'NONE', #34 ) ;
#133 = VERTEX_POINT ( 'NONE', #164 ) ;
#134 = ORIENTED_EDGE ( 'NONE', *, *, #169, .F. ) ;
#135 = AXIS2_PLACEMENT_3D ( 'NONE', #107, #19, #97 ) ;
#136 =( NAMED_UNIT ( * ) PLANE_ANGLE_UNIT ( ) SI_UNIT ( $, .RADIAN. ) );
#137 = APPROVAL_ROLE ( '' ) ;
#138 = CC_DESIGN_PERSON_AND_ORGANIZATION_ASSIGNMENT ( #162, #126, ( #103 ) ) ;
#139 = APPROVAL_DATE_TIME ( #110, #159 ) ;
#140 = SECURITY_CLASSIFICATION ( '', '', #75 ) ;
#141 = MANIFOLD_SOLID_BREP ( 'Boss-Extrude1', #109 ) ;
#142 = PRODUCT_DEFINITION_SHAPE ( 'NONE', 'NONE',  #152 ) ;
#143 = DATE_AND_TIME ( #61, #123 ) ;
#144 = EDGE_CURVE ( 'NONE', #133, #132, #156, .T. ) ;
#145 = CALENDAR_DATE ( 2022, 11, 3 ) ;
#146 = ORIENTED_EDGE ( 'NONE', *, *, #39, .T. ) ;
#147 = PERSON_AND_ORGANIZATION_ROLE ( 'design_supplier' ) ;
#148 = FACE_OUTER_BOUND ( 'NONE', #79, .T. ) ;
#149 = ORIENTED_EDGE ( 'NONE', *, *, #39, .F. ) ;
#150 = DIRECTION ( 'NONE',  ( 1.000000000000000000, 0.000000000000000000, 0.000000000000000000 ) ) ;
#151 = AXIS2_PLACEMENT_3D ( 'NONE', #118, #166, #106 ) ;
#152 = PRODUCT_DEFINITION ( 'UNKNOWN', '', #103, #170 ) ;
#153 = APPLICATION_PROTOCOL_DEFINITION ( 'international standard', 'config_control_design', 1994, #65 ) ;
#154 = CARTESIAN_POINT ( 'NONE',  ( -2.500000000000000000, 0.000000000000000000, 25.39999999999999858 ) ) ;
#155 = DIRECTION ( 'NONE',  ( 1.000000000000000000, 0.000000000000000000, 0.000000000000000000 ) ) ;
#156 = CIRCLE ( 'NONE', #100, 25.39999999999999858 ) ;
#157 = ADVANCED_BREP_SHAPE_REPRESENTATION ( 'Web Model 15404_15407', ( #141, #135 ), #8 ) ;
#158 = APPROVAL_STATUS ( 'not_yet_approved' ) ;
#159 = APPROVAL ( #55, 'UNSPECIFIED' ) ;
#160 = SHAPE_DEFINITION_REPRESENTATION ( #142, #157 ) ;
#161 = APPROVAL_STATUS ( 'not_yet_approved' ) ;
#162 = PERSON_AND_ORGANIZATION ( #69, #86 ) ;
#163 = VERTEX_POINT ( 'NONE', #154 ) ;
#164 = CARTESIAN_POINT ( 'NONE',  ( 2.500000000000000000, 3.110602869834276865E-15, -25.39999999999999858 ) ) ;
#165 =( NAMED_UNIT ( * ) SI_UNIT ( $, .STERADIAN. ) SOLID_ANGLE_UNIT ( ) );
#166 = DIRECTION ( 'NONE',  ( 1.000000000000000000, 0.000000000000000000, 0.000000000000000000 ) ) ;
#167 = DIRECTION ( 'NONE',  ( 0.000000000000000000, 0.000000000000000000, 1.000000000000000000 ) ) ;
#168 = VECTOR ( 'NONE', #20, 1000.000000000000000 ) ;
#169 = EDGE_CURVE ( 'NONE', #132, #163, #4, .T. ) ;
#170 = DESIGN_CONTEXT ( 'detailed design', #74, 'design' ) ;
#171 = PERSON_AND_ORGANIZATION_ROLE ( 'classification_officer' ) ;
#172 = APPROVAL ( #158, 'UNSPECIFIED' ) ;
#173 = LOCAL_TIME ( 13, 21, 6.000000000000000000, #44 ) ;
#174 = DATE_AND_TIME ( #92, #35 ) ;
#175 = CC_DESIGN_SECURITY_CLASSIFICATION ( #140, ( #103 ) ) ;
ENDSEC;
END-ISO-10303-21;
