ISO-10303-21;
HEADER;
FILE_DESCRIPTION (( 'STEP AP203' ),
    '1' );
FILE_NAME ('Web Model 43818_43360.step',
    '2017-04-10T18:03:59',
    ( '' ),
    ( '' ),
    'SwSTEP 2.0',
    'SolidWorks 2016',
    '' );
FILE_SCHEMA (( 'CONFIG_CONTROL_DESIGN' ));
ENDSEC;

DATA;
#1 = COORDINATED_UNIVERSAL_TIME_OFFSET ( 5, 0, .BEHIND. ) ;
#2 = ORIENTED_EDGE ( 'NONE', *, *, #234, .T. ) ;
#3 = CARTESIAN_POINT ( 'NONE',  ( 25.00000000000000000, 25.00000000000000000, 0.5000000000000000000 ) ) ;
#4 = PERSON_AND_ORGANIZATION ( #42, #110 ) ;
#5 = CARTESIAN_POINT ( 'NONE',  ( 0.0000000000000000000, 0.0000000000000000000, 0.0000000000000000000 ) ) ;
#6 = FACE_OUTER_BOUND ( 'NONE', #231, .T. ) ;
#7 = CARTESIAN_POINT ( 'NONE',  ( -25.00000000000000000, 25.00000000000000000, 0.5000000000000000000 ) ) ;
#8 = FACE_OUTER_BOUND ( 'NONE', #185, .T. ) ;
#9 = PERSON_AND_ORGANIZATION ( #42, #110 ) ;
#10 = APPLICATION_CONTEXT ( 'configuration controlled 3d designs of mechanical parts and assemblies' ) ;
#11 = VERTEX_POINT ( 'NONE', #198 ) ;
#12 = CARTESIAN_POINT ( 'NONE',  ( -25.00000000000000000, 25.00000000000000000, 0.5000000000000000000 ) ) ;
#13 = VECTOR ( 'NONE', #117, 1000.000000000000000 ) ;
#14 = CARTESIAN_POINT ( 'NONE',  ( 0.0000000000000000000, 0.0000000000000000000, -0.5000000000000000000 ) ) ;
#15 = APPROVAL_PERSON_ORGANIZATION ( #132, #200, #179 ) ;
#16 = ORIENTED_EDGE ( 'NONE', *, *, #205, .T. ) ;
#17 = VERTEX_POINT ( 'NONE', #29 ) ;
#18 = VERTEX_POINT ( 'NONE', #207 ) ;
#19 = PRODUCT_DEFINITION_SHAPE ( 'NONE', 'NONE',  #140 ) ;
#20 = CARTESIAN_POINT ( 'NONE',  ( 0.0000000000000000000, 0.0000000000000000000, 0.5000000000000000000 ) ) ;
#21 = EDGE_LOOP ( 'NONE', ( #38, #47, #91, #49 ) ) ;
#22 = EDGE_CURVE ( 'NONE', #203, #11, #58, .T. ) ;
#23 = ORIENTED_EDGE ( 'NONE', *, *, #137, .F. ) ;
#24 = PLANE ( 'NONE',  #142 ) ;
#25 = VECTOR ( 'NONE', #195, 1000.000000000000000 ) ;
#26 = CC_DESIGN_PERSON_AND_ORGANIZATION_ASSIGNMENT ( #141, #212, ( #140 ) ) ;
#27 = LOCAL_TIME ( 14, 3, 59.00000000000000000, #1 ) ;
#28 = APPROVAL ( #36, 'UNSPECIFIED' ) ;
#29 = CARTESIAN_POINT ( 'NONE',  ( -25.00000000000000000, -25.00000000000000000, 0.5000000000000000000 ) ) ;
#30 = CARTESIAN_POINT ( 'NONE',  ( 25.00000000000000000, -25.00000000000000000, -0.5000000000000000000 ) ) ;
#31 = CARTESIAN_POINT ( 'NONE',  ( -25.00000000000000000, 25.00000000000000000, -0.5000000000000000000 ) ) ;
#32 = ORIENTED_EDGE ( 'NONE', *, *, #35, .F. ) ;
#33 = ORIENTED_EDGE ( 'NONE', *, *, #134, .T. ) ;
#34 = APPROVAL_DATE_TIME ( #43, #28 ) ;
#35 = EDGE_CURVE ( 'NONE', #17, #216, #190, .T. ) ;
#36 = APPROVAL_STATUS ( 'not_yet_approved' ) ;
#37 = APPROVAL_PERSON_ORGANIZATION ( #9, #28, #105 ) ;
#38 = ORIENTED_EDGE ( 'NONE', *, *, #205, .F. ) ;
#39 = DATE_AND_TIME ( #67, #27 ) ;
#40 = CLOSED_SHELL ( 'NONE', ( #206, #82, #171, #174, #93, #168 ) ) ;
#41 = VECTOR ( 'NONE', #196, 1000.000000000000000 ) ;
#42 = PERSON ( 'UNSPECIFIED', 'UNSPECIFIED', 'UNSPECIFIED', ('UNSPECIFIED'), ('UNSPECIFIED'), ('UNSPECIFIED') ) ;
#43 = DATE_AND_TIME ( #48, #63 ) ;
#44 = DATE_TIME_ROLE ( 'creation_date' ) ;
#45 = ORIENTED_EDGE ( 'NONE', *, *, #88, .F. ) ;
#46 = CARTESIAN_POINT ( 'NONE',  ( 25.00000000000000000, 25.00000000000000000, -0.5000000000000000000 ) ) ;
#47 = ORIENTED_EDGE ( 'NONE', *, *, #100, .F. ) ;
#48 = CALENDAR_DATE ( 2017, 10, 4 ) ;
#49 = ORIENTED_EDGE ( 'NONE', *, *, #22, .F. ) ;
#50 = LOCAL_TIME ( 14, 3, 59.00000000000000000, #76 ) ;
#51 = ORIENTED_EDGE ( 'NONE', *, *, #226, .T. ) ;
#52 = CARTESIAN_POINT ( 'NONE',  ( 25.00000000000000000, 25.00000000000000000, -0.5000000000000000000 ) ) ;
#53 = PERSON_AND_ORGANIZATION_ROLE ( 'design_owner' ) ;
#54 = DIRECTION ( 'NONE',  ( -0.0000000000000000000, 0.0000000000000000000, 1.000000000000000000 ) ) ;
#55 = LINE ( 'NONE', #176, #180 ) ;
#56 = DIRECTION ( 'NONE',  ( 1.000000000000000000, 0.0000000000000000000, 0.0000000000000000000 ) ) ;
#57 = CARTESIAN_POINT ( 'NONE',  ( 25.00000000000000000, 25.00000000000000000, 0.5000000000000000000 ) ) ;
#58 = LINE ( 'NONE', #31, #218 ) ;
#59 = ORIENTED_EDGE ( 'NONE', *, *, #175, .T. ) ;
#60 = DIRECTION ( 'NONE',  ( 0.0000000000000000000, -1.000000000000000000, 0.0000000000000000000 ) ) ;
#61 = ORIENTED_EDGE ( 'NONE', *, *, #127, .T. ) ;
#62 = PERSON_AND_ORGANIZATION_ROLE ( 'creator' ) ;
#63 = LOCAL_TIME ( 14, 3, 59.00000000000000000, #109 ) ;
#64 = ORIENTED_EDGE ( 'NONE', *, *, #127, .F. ) ;
#65 = EDGE_LOOP ( 'NONE', ( #77, #115, #45, #59 ) ) ;
#66 = VECTOR ( 'NONE', #70, 1000.000000000000000 ) ;
#67 = CALENDAR_DATE ( 2017, 10, 4 ) ;
#68 = DIRECTION ( 'NONE',  ( -0.0000000000000000000, -0.0000000000000000000, -1.000000000000000000 ) ) ;
#69 = CC_DESIGN_APPROVAL ( #147, ( #140 ) ) ;
#70 = DIRECTION ( 'NONE',  ( 0.0000000000000000000, -1.000000000000000000, 0.0000000000000000000 ) ) ;
#71 = DIRECTION ( 'NONE',  ( -1.000000000000000000, -0.0000000000000000000, -0.0000000000000000000 ) ) ;
#72 =( LENGTH_UNIT ( ) NAMED_UNIT ( * ) SI_UNIT ( .MILLI., .METRE. ) );
#73 = VECTOR ( 'NONE', #120, 1000.000000000000000 ) ;
#74 = AXIS2_PLACEMENT_3D ( 'NONE', #7, #139, #138 ) ;
#75 = ORIENTED_EDGE ( 'NONE', *, *, #175, .F. ) ;
#76 = COORDINATED_UNIVERSAL_TIME_OFFSET ( 5, 0, .BEHIND. ) ;
#77 = ORIENTED_EDGE ( 'NONE', *, *, #151, .T. ) ;
#78 = AXIS2_PLACEMENT_3D ( 'NONE', #20, #125, #146 ) ;
#79 = PERSON_AND_ORGANIZATION ( #42, #110 ) ;
#80 = SHAPE_DEFINITION_REPRESENTATION ( #19, #233 ) ;
#81 = CARTESIAN_POINT ( 'NONE',  ( -25.00000000000000000, -25.00000000000000000, -0.5000000000000000000 ) ) ;
#82 = ADVANCED_FACE ( 'NONE', ( #148 ), #104, .F. ) ;
#83 =( NAMED_UNIT ( * ) PLANE_ANGLE_UNIT ( ) SI_UNIT ( $, .RADIAN. ) );
#84 = DIRECTION ( 'NONE',  ( 0.0000000000000000000, -1.000000000000000000, 0.0000000000000000000 ) ) ;
#85 = APPROVAL_STATUS ( 'not_yet_approved' ) ;
#86 = CARTESIAN_POINT ( 'NONE',  ( 25.00000000000000000, 25.00000000000000000, 0.5000000000000000000 ) ) ;
#87 = ORIENTED_EDGE ( 'NONE', *, *, #35, .T. ) ;
#88 = EDGE_CURVE ( 'NONE', #107, #17, #55, .T. ) ;
#89 = VECTOR ( 'NONE', #189, 1000.000000000000000 ) ;
#90 = CARTESIAN_POINT ( 'NONE',  ( -25.00000000000000000, -25.00000000000000000, 0.5000000000000000000 ) ) ;
#91 = ORIENTED_EDGE ( 'NONE', *, *, #151, .F. ) ;
#92 = DATE_AND_TIME ( #113, #136 ) ;
#93 = ADVANCED_FACE ( 'NONE', ( #6 ), #193, .T. ) ;
#94 = LINE ( 'NONE', #52, #41 ) ;
#95 = FACE_OUTER_BOUND ( 'NONE', #65, .T. ) ;
#96 = APPROVAL_DATE_TIME ( #209, #147 ) ;
#97 = DESIGN_CONTEXT ( 'detailed design', #157, 'design' ) ;
#98 = DIRECTION ( 'NONE',  ( -0.0000000000000000000, -0.0000000000000000000, -1.000000000000000000 ) ) ;
#99 = DIRECTION ( 'NONE',  ( 1.000000000000000000, 0.0000000000000000000, 0.0000000000000000000 ) ) ;
#100 = EDGE_CURVE ( 'NONE', #101, #121, #201, .T. ) ;
#101 = VERTEX_POINT ( 'NONE', #81 ) ;
#102 = PERSON_AND_ORGANIZATION ( #42, #110 ) ;
#103 = DATE_TIME_ROLE ( 'classification_date' ) ;
#104 = PLANE ( 'NONE',  #116 ) ;
#105 = APPROVAL_ROLE ( '' ) ;
#106 = APPLICATION_PROTOCOL_DEFINITION ( 'international standard', 'config_control_design', 1994, #157 ) ;
#107 = VERTEX_POINT ( 'NONE', #114 ) ;
#108 = DIRECTION ( 'NONE',  ( 0.0000000000000000000, 1.000000000000000000, 0.0000000000000000000 ) ) ;
#109 = COORDINATED_UNIVERSAL_TIME_OFFSET ( 5, 0, .BEHIND. ) ;
#110 = ORGANIZATION ( 'UNSPECIFIED', 'UNSPECIFIED', '' ) ;
#111 = CC_DESIGN_PERSON_AND_ORGANIZATION_ASSIGNMENT ( #153, #53, ( #159 ) ) ;
#112 = CC_DESIGN_PERSON_AND_ORGANIZATION_ASSIGNMENT ( #4, #62, ( #163 ) ) ;
#113 = CALENDAR_DATE ( 2017, 10, 4 ) ;
#114 = CARTESIAN_POINT ( 'NONE',  ( -25.00000000000000000, 25.00000000000000000, 0.5000000000000000000 ) ) ;
#115 = ORIENTED_EDGE ( 'NONE', *, *, #226, .F. ) ;
#116 = AXIS2_PLACEMENT_3D ( 'NONE', #12, #84, #230 ) ;
#117 = DIRECTION ( 'NONE',  ( -0.0000000000000000000, -0.0000000000000000000, -1.000000000000000000 ) ) ;
#118 = AXIS2_PLACEMENT_3D ( 'NONE', #14, #54, #99 ) ;
#119 = LINE ( 'NONE', #126, #89 ) ;
#120 = DIRECTION ( 'NONE',  ( -0.0000000000000000000, -0.0000000000000000000, -1.000000000000000000 ) ) ;
#121 = VERTEX_POINT ( 'NONE', #30 ) ;
#122 =( GEOMETRIC_REPRESENTATION_CONTEXT ( 3 ) GLOBAL_UNCERTAINTY_ASSIGNED_CONTEXT ( ( #211 ) ) GLOBAL_UNIT_ASSIGNED_CONTEXT ( ( #72, #83, #156 ) ) REPRESENTATION_CONTEXT ( 'NONE', 'WORKASPACE' ) );
#123 = PLANE ( 'NONE',  #74 ) ;
#124 = DIRECTION ( 'NONE',  ( 0.0000000000000000000, -0.0000000000000000000, 1.000000000000000000 ) ) ;
#125 = DIRECTION ( 'NONE',  ( -0.0000000000000000000, 0.0000000000000000000, 1.000000000000000000 ) ) ;
#126 = CARTESIAN_POINT ( 'NONE',  ( -25.00000000000000000, 25.00000000000000000, 0.5000000000000000000 ) ) ;
#127 = EDGE_CURVE ( 'NONE', #216, #18, #221, .T. ) ;
#128 = DIRECTION ( 'NONE',  ( 0.0000000000000000000, 0.0000000000000000000, 1.000000000000000000 ) ) ;
#129 = ORIENTED_EDGE ( 'NONE', *, *, #234, .F. ) ;
#130 = CARTESIAN_POINT ( 'NONE',  ( -25.00000000000000000, 25.00000000000000000, 0.5000000000000000000 ) ) ;
#131 = ORIENTED_EDGE ( 'NONE', *, *, #88, .T. ) ;
#132 = PERSON_AND_ORGANIZATION ( #42, #110 ) ;
#133 = APPROVAL_ROLE ( '' ) ;
#134 = EDGE_CURVE ( 'NONE', #18, #107, #119, .T. ) ;
#135 = CC_DESIGN_APPROVAL ( #200, ( #215 ) ) ;
#136 = LOCAL_TIME ( 14, 3, 59.00000000000000000, #229 ) ;
#137 = EDGE_CURVE ( 'NONE', #216, #121, #181, .T. ) ;
#138 = DIRECTION ( 'NONE',  ( -0.0000000000000000000, 0.0000000000000000000, -1.000000000000000000 ) ) ;
#139 = DIRECTION ( 'NONE',  ( 1.000000000000000000, 0.0000000000000000000, -0.0000000000000000000 ) ) ;
#140 = PRODUCT_DEFINITION ( 'UNKNOWN', '', #163, #97 ) ;
#141 = PERSON_AND_ORGANIZATION ( #42, #110 ) ;
#142 = AXIS2_PLACEMENT_3D ( 'NONE', #57, #144, #227 ) ;
#143 = LINE ( 'NONE', #86, #13 ) ;
#144 = DIRECTION ( 'NONE',  ( -1.000000000000000000, 0.0000000000000000000, 0.0000000000000000000 ) ) ;
#145 = APPROVAL_DATE_TIME ( #92, #200 ) ;
#146 = DIRECTION ( 'NONE',  ( 1.000000000000000000, 0.0000000000000000000, 0.0000000000000000000 ) ) ;
#147 = APPROVAL ( #235, 'UNSPECIFIED' ) ;
#148 = FACE_OUTER_BOUND ( 'NONE', #191, .T. ) ;
#149 = VECTOR ( 'NONE', #177, 1000.000000000000000 ) ;
#150 = CARTESIAN_POINT ( 'NONE',  ( 25.00000000000000000, -25.00000000000000000, 0.5000000000000000000 ) ) ;
#151 = EDGE_CURVE ( 'NONE', #11, #101, #197, .T. ) ;
#152 = FACE_OUTER_BOUND ( 'NONE', #21, .T. ) ;
#153 = PERSON_AND_ORGANIZATION ( #42, #110 ) ;
#154 = VECTOR ( 'NONE', #68, 1000.000000000000000 ) ;
#155 = AXIS2_PLACEMENT_3D ( 'NONE', #224, #108, #124 ) ;
#156 =( NAMED_UNIT ( * ) SI_UNIT ( $, .STERADIAN. ) SOLID_ANGLE_UNIT ( ) );
#157 = APPLICATION_CONTEXT ( 'configuration controlled 3d designs of mechanical parts and assemblies' ) ;
#158 = CALENDAR_DATE ( 2017, 10, 4 ) ;
#159 = PRODUCT ( 'Web Model 43818_43360', 'Web Model 43818_43360', '', ( #222 ) ) ;
#160 = VECTOR ( 'NONE', #98, 1000.000000000000000 ) ;
#161 = LOCAL_TIME ( 14, 3, 59.00000000000000000, #210 ) ;
#162 = CARTESIAN_POINT ( 'NONE',  ( 25.00000000000000000, -25.00000000000000000, 0.5000000000000000000 ) ) ;
#163 = PRODUCT_DEFINITION_FORMATION_WITH_SPECIFIED_SOURCE ( 'ANY', '', #159, .NOT_KNOWN. ) ;
#164 = ORIENTED_EDGE ( 'NONE', *, *, #137, .T. ) ;
#165 = ORIENTED_EDGE ( 'NONE', *, *, #100, .T. ) ;
#166 = PERSON_AND_ORGANIZATION_ROLE ( 'classification_officer' ) ;
#167 = ORIENTED_EDGE ( 'NONE', *, *, #22, .T. ) ;
#168 = ADVANCED_FACE ( 'NONE', ( #152 ), #188, .F. ) ;
#169 = AXIS2_PLACEMENT_3D ( 'NONE', #5, #128, #56 ) ;
#170 = EDGE_LOOP ( 'NONE', ( #165, #23, #32, #51 ) ) ;
#171 = ADVANCED_FACE ( 'NONE', ( #95 ), #123, .F. ) ;
#172 = CC_DESIGN_APPROVAL ( #28, ( #163 ) ) ;
#173 = APPROVAL_PERSON_ORGANIZATION ( #232, #147, #133 ) ;
#174 = ADVANCED_FACE ( 'NONE', ( #204 ), #192, .F. ) ;
#175 = EDGE_CURVE ( 'NONE', #107, #11, #182, .T. ) ;
#176 = CARTESIAN_POINT ( 'NONE',  ( -25.00000000000000000, 25.00000000000000000, 0.5000000000000000000 ) ) ;
#177 = DIRECTION ( 'NONE',  ( 1.000000000000000000, 0.0000000000000000000, 0.0000000000000000000 ) ) ;
#178 = VECTOR ( 'NONE', #194, 1000.000000000000000 ) ;
#179 = APPROVAL_ROLE ( '' ) ;
#180 = VECTOR ( 'NONE', #60, 1000.000000000000000 ) ;
#181 = LINE ( 'NONE', #150, #154 ) ;
#182 = LINE ( 'NONE', #130, #160 ) ;
#183 = CALENDAR_DATE ( 2017, 10, 4 ) ;
#184 = SECURITY_CLASSIFICATION_LEVEL ( 'unclassified' ) ;
#185 = EDGE_LOOP ( 'NONE', ( #16, #129, #64, #164 ) ) ;
#186 = CARTESIAN_POINT ( 'NONE',  ( -25.00000000000000000, 25.00000000000000000, -0.5000000000000000000 ) ) ;
#187 = CC_DESIGN_SECURITY_CLASSIFICATION ( #215, ( #163 ) ) ;
#188 = PLANE ( 'NONE',  #118 ) ;
#189 = DIRECTION ( 'NONE',  ( -1.000000000000000000, -0.0000000000000000000, -0.0000000000000000000 ) ) ;
#190 = LINE ( 'NONE', #237, #25 ) ;
#191 = EDGE_LOOP ( 'NONE', ( #167, #75, #219, #2 ) ) ;
#192 = PLANE ( 'NONE',  #155 ) ;
#193 = PLANE ( 'NONE',  #78 ) ;
#194 = DIRECTION ( 'NONE',  ( -0.0000000000000000000, 1.000000000000000000, -0.0000000000000000000 ) ) ;
#195 = DIRECTION ( 'NONE',  ( 1.000000000000000000, 0.0000000000000000000, 0.0000000000000000000 ) ) ;
#196 = DIRECTION ( 'NONE',  ( -0.0000000000000000000, 1.000000000000000000, -0.0000000000000000000 ) ) ;
#197 = LINE ( 'NONE', #186, #66 ) ;
#198 = CARTESIAN_POINT ( 'NONE',  ( -25.00000000000000000, 25.00000000000000000, -0.5000000000000000000 ) ) ;
#199 = LINE ( 'NONE', #90, #73 ) ;
#200 = APPROVAL ( #85, 'UNSPECIFIED' ) ;
#201 = LINE ( 'NONE', #225, #149 ) ;
#202 = PERSON_AND_ORGANIZATION_ROLE ( 'design_supplier' ) ;
#203 = VERTEX_POINT ( 'NONE', #46 ) ;
#204 = FACE_OUTER_BOUND ( 'NONE', #170, .T. ) ;
#205 = EDGE_CURVE ( 'NONE', #121, #203, #94, .T. ) ;
#206 = ADVANCED_FACE ( 'NONE', ( #8 ), #24, .F. ) ;
#207 = CARTESIAN_POINT ( 'NONE',  ( 25.00000000000000000, 25.00000000000000000, 0.5000000000000000000 ) ) ;
#208 = DATE_AND_TIME ( #183, #50 ) ;
#209 = DATE_AND_TIME ( #158, #161 ) ;
#210 = COORDINATED_UNIVERSAL_TIME_OFFSET ( 5, 0, .BEHIND. ) ;
#211 = UNCERTAINTY_MEASURE_WITH_UNIT (LENGTH_MEASURE( 1.000000000000000100E-005 ), #72, 'distance_accuracy_value', 'NONE');
#212 = PERSON_AND_ORGANIZATION_ROLE ( 'creator' ) ;
#213 = CC_DESIGN_DATE_AND_TIME_ASSIGNMENT ( #208, #44, ( #140 ) ) ;
#214 = MANIFOLD_SOLID_BREP ( 'Boss-Extrude1', #40 ) ;
#215 = SECURITY_CLASSIFICATION ( '', '', #184 ) ;
#216 = VERTEX_POINT ( 'NONE', #162 ) ;
#217 = CC_DESIGN_PERSON_AND_ORGANIZATION_ASSIGNMENT ( #102, #202, ( #163 ) ) ;
#218 = VECTOR ( 'NONE', #71, 1000.000000000000000 ) ;
#219 = ORIENTED_EDGE ( 'NONE', *, *, #134, .F. ) ;
#220 = PRODUCT_RELATED_PRODUCT_CATEGORY ( 'detail', '', ( #159 ) ) ;
#221 = LINE ( 'NONE', #3, #178 ) ;
#222 = MECHANICAL_CONTEXT ( 'NONE', #10, 'mechanical' ) ;
#223 = APPLICATION_PROTOCOL_DEFINITION ( 'international standard', 'config_control_design', 1994, #10 ) ;
#224 = CARTESIAN_POINT ( 'NONE',  ( -25.00000000000000000, -25.00000000000000000, 0.5000000000000000000 ) ) ;
#225 = CARTESIAN_POINT ( 'NONE',  ( -25.00000000000000000, -25.00000000000000000, -0.5000000000000000000 ) ) ;
#226 = EDGE_CURVE ( 'NONE', #17, #101, #199, .T. ) ;
#227 = DIRECTION ( 'NONE',  ( 0.0000000000000000000, 0.0000000000000000000, 1.000000000000000000 ) ) ;
#228 = CC_DESIGN_PERSON_AND_ORGANIZATION_ASSIGNMENT ( #79, #166, ( #215 ) ) ;
#229 = COORDINATED_UNIVERSAL_TIME_OFFSET ( 5, 0, .BEHIND. ) ;
#230 = DIRECTION ( 'NONE',  ( 0.0000000000000000000, -0.0000000000000000000, -1.000000000000000000 ) ) ;
#231 = EDGE_LOOP ( 'NONE', ( #61, #33, #131, #87 ) ) ;
#232 = PERSON_AND_ORGANIZATION ( #42, #110 ) ;
#233 = ADVANCED_BREP_SHAPE_REPRESENTATION ( 'Web Model 43818_43360', ( #214, #169 ), #122 ) ;
#234 = EDGE_CURVE ( 'NONE', #18, #203, #143, .T. ) ;
#235 = APPROVAL_STATUS ( 'not_yet_approved' ) ;
#236 = CC_DESIGN_DATE_AND_TIME_ASSIGNMENT ( #39, #103, ( #215 ) ) ;
#237 = CARTESIAN_POINT ( 'NONE',  ( -25.00000000000000000, -25.00000000000000000, 0.5000000000000000000 ) ) ;
ENDSEC;
END-ISO-10303-21;
