ISO-10303-21;
HEADER;
FILE_DESCRIPTION (( 'STEP AP203' ),
    '1' );
FILE_NAME ('TTN225627-E0W.STEP',
    '2022-08-12T15:55:21',
    ( '' ),
    ( '' ),
    'SwSTEP 2.0',
    'SolidWorks 2018',
    '' );
FILE_SCHEMA (( 'CONFIG_CONTROL_DESIGN' ));
ENDSEC;

DATA;
#1 = FACE_OUTER_BOUND ( 'NONE', #29, .T. ) ;
#2 = LOCAL_TIME ( 11, 55, 21.00000000000000000, #208 ) ;
#3 = ORIENTED_EDGE ( 'NONE', *, *, #223, .T. ) ;
#4 = CIRCLE ( 'NONE', #229, 0.01269999999999999948 ) ;
#5 = EDGE_LOOP ( 'NONE', ( #182, #76, #111, #100 ) ) ;
#6 = EDGE_CURVE ( 'NONE', #136, #311, #228, .T. ) ;
#7 = DIRECTION ( 'NONE',  ( -0.000000000000000000, -1.836909530733565887E-16, 1.000000000000000000 ) ) ;
#8 = DATE_AND_TIME ( #18, #317 ) ;
#9 = ADVANCED_FACE ( 'NONE', ( #295 ), #86, .T. ) ;
#10 = VECTOR ( 'NONE', #131, 1.000000000000000000 ) ;
#11 = DIRECTION ( 'NONE',  ( -0.000000000000000000, -1.836909530733565887E-16, 1.000000000000000000 ) ) ;
#12 = DIRECTION ( 'NONE',  ( 1.000000000000000000, 0.000000000000000000, 0.000000000000000000 ) ) ;
#13 = CARTESIAN_POINT ( 'NONE',  ( 0.000000000000000000, 0.000000000000000000, 0.002350000000000000092 ) ) ;
#14 = CALENDAR_DATE ( 2022, 12, 8 ) ;
#15 = PRODUCT_DEFINITION ( 'UNKNOWN', '', #35, #306 ) ;
#16 = CARTESIAN_POINT ( 'NONE',  ( 0.000000000000000000, 0.01253375647926141014, 0.006148866978194666121 ) ) ;
#17 = CARTESIAN_POINT ( 'NONE',  ( 0.000000000000000000, -3.883329694609412197E-19, 0.004464056043390778050 ) ) ;
#18 = CALENDAR_DATE ( 2022, 12, 8 ) ;
#19 = LINE ( 'NONE', #278, #101 ) ;
#20 = APPROVAL_ROLE ( '' ) ;
#21 = CARTESIAN_POINT ( 'NONE',  ( 1.555301434917138519E-18, 0.01269999999999999948, 0.004464056043390780652 ) ) ;
#22 = AXIS2_PLACEMENT_3D ( 'NONE', #323, #296, #144 ) ;
#23 = APPROVAL_ROLE ( '' ) ;
#24 = APPROVAL_PERSON_ORGANIZATION ( #180, #169, #20 ) ;
#25 = CIRCLE ( 'NONE', #268, 0.01550000000000000162 ) ;
#26 = CARTESIAN_POINT ( 'NONE',  ( 0.000000000000000000, -0.01269999999999999948, 0.006060904875677707200 ) ) ;
#27 = EDGE_CURVE ( 'NONE', #30, #51, #239, .T. ) ;
#28 = CYLINDRICAL_SURFACE ( 'NONE', #89, 0.01269999999999999948 ) ;
#29 = EDGE_LOOP ( 'NONE', ( #292, #121, #50, #201 ) ) ;
#30 = VERTEX_POINT ( 'NONE', #84 ) ;
#31 = ADVANCED_FACE ( 'NONE', ( #1 ), #28, .T. ) ;
#32 = APPROVAL ( #327, 'UNSPECIFIED' ) ;
#33 = ADVANCED_FACE ( 'NONE', ( #178 ), #127, .T. ) ;
#34 = FACE_OUTER_BOUND ( 'NONE', #5, .T. ) ;
#35 = PRODUCT_DEFINITION_FORMATION_WITH_SPECIFIED_SOURCE ( 'ANY', '', #291, .NOT_KNOWN. ) ;
#36 = CARTESIAN_POINT ( 'NONE',  ( 0.000000000000000000, -0.01269999999999999948, 0.004464056043390775448 ) ) ;
#37 = CC_DESIGN_PERSON_AND_ORGANIZATION_ASSIGNMENT ( #70, #205, ( #291 ) ) ;
#38 = CIRCLE ( 'NONE', #192, 0.01269999999999999948 ) ;
#39 = CARTESIAN_POINT ( 'NONE',  ( 0.000000000000000000, -3.883329694609412197E-19, 0.004464056043390778050 ) ) ;
#40 = DIRECTION ( 'NONE',  ( -0.000000000000000000, -1.836909530733566873E-16, 1.000000000000000000 ) ) ;
#41 = AXIS2_PLACEMENT_3D ( 'NONE', #13, #160, #191 ) ;
#42 = EDGE_LOOP ( 'NONE', ( #158, #211, #54 ) ) ;
#43 = DIRECTION ( 'NONE',  ( 0.000000000000000000, 1.000000000000000000, 2.076061728397763291E-16 ) ) ;
#44 = DIRECTION ( 'NONE',  ( 0.000000000000000000, -1.000000000000000000, -2.238352872228138170E-16 ) ) ;
#45 = EDGE_CURVE ( 'NONE', #51, #311, #262, .T. ) ;
#46 = SECURITY_CLASSIFICATION_LEVEL ( 'unclassified' ) ;
#47 = FACE_OUTER_BOUND ( 'NONE', #194, .T. ) ;
#48 = CC_DESIGN_APPROVAL ( #32, ( #15 ) ) ;
#49 = COORDINATED_UNIVERSAL_TIME_OFFSET ( 5, 0, .BEHIND. ) ;
#50 = ORIENTED_EDGE ( 'NONE', *, *, #6, .T. ) ;
#51 = VERTEX_POINT ( 'NONE', #289 ) ;
#52 = AXIS2_PLACEMENT_3D ( 'NONE', #65, #167, #252 ) ;
#53 = VERTEX_POINT ( 'NONE', #214 ) ;
#54 = ORIENTED_EDGE ( 'NONE', *, *, #246, .T. ) ;
#55 = DIRECTION ( 'NONE',  ( -0.000000000000000000, -1.836909530733566873E-16, 1.000000000000000000 ) ) ;
#56 = AXIS2_PLACEMENT_3D ( 'NONE', #217, #55, #305 ) ;
#57 = PERSON_AND_ORGANIZATION ( #115, #146 ) ;
#58 = DIRECTION ( 'NONE',  ( -1.000000000000000000, 0.000000000000000000, 0.000000000000000000 ) ) ;
#59 = PERSON_AND_ORGANIZATION ( #115, #146 ) ;
#60 = CARTESIAN_POINT ( 'NONE',  ( 0.000000000000000000, -6.978174958234797298E-19, 0.006148866978194663518 ) ) ;
#61 = CARTESIAN_POINT ( 'NONE',  ( 0.000000000000000000, -0.01258658274986970173, 0.004104120568972715460 ) ) ;
#62 = ORIENTED_EDGE ( 'NONE', *, *, #300, .F. ) ;
#63 = DIRECTION ( 'NONE',  ( 1.000000000000000000, 0.000000000000000000, 0.000000000000000000 ) ) ;
#64 = DIRECTION ( 'NONE',  ( 0.000000000000000000, 1.000000000000000000, 2.048885995248197414E-16 ) ) ;
#65 = CARTESIAN_POINT ( 'NONE',  ( 0.000000000000000000, 0.000000000000000000, 0.01315000000000000023 ) ) ;
#66 = CC_DESIGN_PERSON_AND_ORGANIZATION_ASSIGNMENT ( #57, #117, ( #35 ) ) ;
#67 = VECTOR ( 'NONE', #7, 1.000000000000000000 ) ;
#68 = DIRECTION ( 'NONE',  ( 0.000000000000000000, 1.836909530733566873E-16, -1.000000000000000000 ) ) ;
#69 = AXIS2_PLACEMENT_3D ( 'NONE', #307, #58, #267 ) ;
#70 = PERSON_AND_ORGANIZATION ( #115, #146 ) ;
#71 = ORIENTED_EDGE ( 'NONE', *, *, #258, .T. ) ;
#72 = ADVANCED_FACE ( 'NONE', ( #34 ), #314, .T. ) ;
#73 = AXIS2_PLACEMENT_3D ( 'NONE', #157, #290, #241 ) ;
#74 = EDGE_LOOP ( 'NONE', ( #247, #3, #272, #140 ) ) ;
#75 = AXIS2_PLACEMENT_3D ( 'NONE', #130, #276, #166 ) ;
#76 = ORIENTED_EDGE ( 'NONE', *, *, #45, .T. ) ;
#77 = CIRCLE ( 'NONE', #202, 0.01258658274986970346 ) ;
#78 = ADVANCED_FACE ( 'NONE', ( #149 ), #320, .T. ) ;
#79 = DIRECTION ( 'NONE',  ( 0.000000000000000000, 1.000000000000000000, 2.076061728397763291E-16 ) ) ;
#80 = EDGE_LOOP ( 'NONE', ( #94, #189, #187 ) ) ;
#81 = DIRECTION ( 'NONE',  ( 1.082460413134886908E-16, -0.8838960048632290567, -0.4676834961668230317 ) ) ;
#82 = CC_DESIGN_PERSON_AND_ORGANIZATION_ASSIGNMENT ( #148, #204, ( #107 ) ) ;
#83 = CARTESIAN_POINT ( 'NONE',  ( 0.000000000000000000, -0.01269999999999999948, 0.004464056043390775448 ) ) ;
#84 = CARTESIAN_POINT ( 'NONE',  ( 0.000000000000000000, 5.529388263461630912E-18, 0.002350000000000004863 ) ) ;
#85 = CARTESIAN_POINT ( 'NONE',  ( 0.000000000000000000, 0.000000000000000000, 0.01315000000000000023 ) ) ;
#86 = CONICAL_SURFACE ( 'NONE', #56, 0.01269999999999999948, 0.3052557937996923654 ) ;
#87 = CARTESIAN_POINT ( 'NONE',  ( 0.000000000000000000, -6.816596533778042481E-19, 0.006060904875677709802 ) ) ;
#88 = CARTESIAN_POINT ( 'NONE',  ( 0.000000000000000000, 1.661646214072074863E-18, 0.004104120568972718930 ) ) ;
#89 = AXIS2_PLACEMENT_3D ( 'NONE', #240, #11, #132 ) ;
#90 = SPHERICAL_SURFACE ( 'NONE', #176, 0.01549999999999999989 ) ;
#91 = CARTESIAN_POINT ( 'NONE',  ( 0.000000000000000000, -6.816596533778042481E-19, 0.006060904875677709802 ) ) ;
#92 = AXIS2_PLACEMENT_3D ( 'NONE', #85, #12, #104 ) ;
#93 = APPROVAL_ROLE ( '' ) ;
#94 = ORIENTED_EDGE ( 'NONE', *, *, #27, .F. ) ;
#95 = DATE_TIME_ROLE ( 'classification_date' ) ;
#96 =( NAMED_UNIT ( * ) PLANE_ANGLE_UNIT ( ) SI_UNIT ( $, .RADIAN. ) );
#97 = APPLICATION_CONTEXT ( 'configuration controlled 3d designs of mechanical parts and assemblies' ) ;
#98 = LOCAL_TIME ( 11, 55, 21.00000000000000000, #49 ) ;
#99 = ORIENTED_EDGE ( 'NONE', *, *, #265, .F. ) ;
#100 = ORIENTED_EDGE ( 'NONE', *, *, #258, .F. ) ;
#101 = VECTOR ( 'NONE', #141, 1.000000000000000000 ) ;
#102 = LINE ( 'NONE', #16, #195 ) ;
#103 = VERTEX_POINT ( 'NONE', #309 ) ;
#104 = DIRECTION ( 'NONE',  ( 0.000000000000000000, -1.000000000000000000, -2.238352872228138170E-16 ) ) ;
#105 = AXIS2_PLACEMENT_3D ( 'NONE', #316, #275, #249 ) ;
#106 = FACE_OUTER_BOUND ( 'NONE', #227, .T. ) ;
#107 = SECURITY_CLASSIFICATION ( '', '', #46 ) ;
#108 = DIRECTION ( 'NONE',  ( 0.000000000000000000, 0.8838960048632292787, -0.4676834961668226986 ) ) ;
#109 = COORDINATED_UNIVERSAL_TIME_OFFSET ( 5, 0, .BEHIND. ) ;
#110 = CARTESIAN_POINT ( 'NONE',  ( 0.000000000000000000, 0.000000000000000000, 0.01315000000000000023 ) ) ;
#111 = ORIENTED_EDGE ( 'NONE', *, *, #236, .F. ) ;
#112 = APPROVAL_PERSON_ORGANIZATION ( #257, #32, #23 ) ;
#113 = ORIENTED_EDGE ( 'NONE', *, *, #235, .T. ) ;
#114 = DIRECTION ( 'NONE',  ( 0.000000000000000000, 1.836909530733571804E-16, -1.000000000000000000 ) ) ;
#115 = PERSON ( 'UNSPECIFIED', 'UNSPECIFIED', 'UNSPECIFIED', ('UNSPECIFIED'), ('UNSPECIFIED'), ('UNSPECIFIED') ) ;
#116 = CC_DESIGN_APPROVAL ( #251, ( #107 ) ) ;
#117 = PERSON_AND_ORGANIZATION_ROLE ( 'design_supplier' ) ;
#118 = VERTEX_POINT ( 'NONE', #190 ) ;
#119 = DIRECTION ( 'NONE',  ( 0.000000000000000000, -1.000000000000000000, -2.076061728397762798E-16 ) ) ;
#120 =( NAMED_UNIT ( * ) SI_UNIT ( $, .STERADIAN. ) SOLID_ANGLE_UNIT ( ) );
#121 = ORIENTED_EDGE ( 'NONE', *, *, #175, .T. ) ;
#122 = ADVANCED_FACE ( 'NONE', ( #293 ), #184, .F. ) ;
#123 = ORIENTED_EDGE ( 'NONE', *, *, #246, .F. ) ;
#124 = DIRECTION ( 'NONE',  ( 0.000000000000000000, 0.000000000000000000, 1.000000000000000000 ) ) ;
#125 = APPROVAL_DATE_TIME ( #286, #169 ) ;
#126 = AXIS2_PLACEMENT_3D ( 'NONE', #273, #40, #199 ) ;
#127 = CYLINDRICAL_SURFACE ( 'NONE', #41, 0.01269999999999999948 ) ;
#128 = ORIENTED_EDGE ( 'NONE', *, *, #168, .F. ) ;
#129 = CIRCLE ( 'NONE', #52, 0.01549999999999999989 ) ;
#130 = CARTESIAN_POINT ( 'NONE',  ( 0.000000000000000000, 0.000000000000000000, 0.02492600000000000371 ) ) ;
#131 = DIRECTION ( 'NONE',  ( 0.000000000000000000, -0.3005371535187618681, 0.9537701082309301137 ) ) ;
#132 = DIRECTION ( 'NONE',  ( 0.000000000000000000, -1.000000000000000000, -1.707404996040164512E-16 ) ) ;
#133 = PERSON_AND_ORGANIZATION ( #115, #146 ) ;
#134 = CIRCLE ( 'NONE', #324, 0.01253375647926141187 ) ;
#135 = CARTESIAN_POINT ( 'NONE',  ( 0.000000000000000000, -6.978174958234797298E-19, 0.006148866978194663518 ) ) ;
#136 = VERTEX_POINT ( 'NONE', #83 ) ;
#137 = CARTESIAN_POINT ( 'NONE',  ( 0.000000000000000000, 1.661646214072074863E-18, 0.004104120568972718930 ) ) ;
#138 = CC_DESIGN_PERSON_AND_ORGANIZATION_ASSIGNMENT ( #186, #322, ( #35 ) ) ;
#139 = CALENDAR_DATE ( 2022, 12, 8 ) ;
#140 = ORIENTED_EDGE ( 'NONE', *, *, #6, .F. ) ;
#141 = DIRECTION ( 'NONE',  ( -0.000000000000000000, -1.836909530733565887E-16, 1.000000000000000000 ) ) ;
#142 = AXIS2_PLACEMENT_3D ( 'NONE', #17, #198, #318 ) ;
#143 = DIRECTION ( 'NONE',  ( -0.000000000000000000, -1.836909530733571804E-16, 1.000000000000000000 ) ) ;
#144 = DIRECTION ( 'NONE',  ( 1.000000000000000000, 0.000000000000000000, 0.000000000000000000 ) ) ;
#145 = CARTESIAN_POINT ( 'NONE',  ( 0.000000000000000000, 3.449189460760630143E-18, 0.006148866978194663518 ) ) ;
#146 = ORGANIZATION ( 'UNSPECIFIED', 'UNSPECIFIED', '' ) ;
#147 = PERSON_AND_ORGANIZATION_ROLE ( 'creator' ) ;
#148 = PERSON_AND_ORGANIZATION ( #115, #146 ) ;
#149 = FACE_OUTER_BOUND ( 'NONE', #42, .T. ) ;
#150 = AXIS2_PLACEMENT_3D ( 'NONE', #60, #185, #79 ) ;
#151 = ORIENTED_EDGE ( 'NONE', *, *, #168, .T. ) ;
#152 = UNCERTAINTY_MEASURE_WITH_UNIT (LENGTH_MEASURE( 1.000000000000000082E-05 ), #298, 'distance_accuracy_value', 'NONE');
#153 = EDGE_LOOP ( 'NONE', ( #254, #113, #174 ) ) ;
#154 = CC_DESIGN_SECURITY_CLASSIFICATION ( #107, ( #35 ) ) ;
#155 = VECTOR ( 'NONE', #81, 1.000000000000000000 ) ;
#156 = AXIS2_PLACEMENT_3D ( 'NONE', #135, #245, #43 ) ;
#157 = CARTESIAN_POINT ( 'NONE',  ( 0.000000000000000000, 0.000000000000000000, 0.02492600000000000371 ) ) ;
#158 = ORIENTED_EDGE ( 'NONE', *, *, #235, .F. ) ;
#159 = ORIENTED_EDGE ( 'NONE', *, *, #218, .F. ) ;
#160 = DIRECTION ( 'NONE',  ( -0.000000000000000000, -1.836909530733565887E-16, 1.000000000000000000 ) ) ;
#161 = CARTESIAN_POINT ( 'NONE',  ( 1.541411827683122498E-18, 0.01258658274986970520, 0.004104120568972720665 ) ) ;
#162 = DIRECTION ( 'NONE',  ( 0.000000000000000000, -1.000000000000000000, -2.067348434182540612E-16 ) ) ;
#163 = CALENDAR_DATE ( 2022, 12, 8 ) ;
#164 = APPROVAL_DATE_TIME ( #237, #32 ) ;
#165 = LINE ( 'NONE', #36, #10 ) ;
#166 = DIRECTION ( 'NONE',  ( 0.000000000000000000, 1.000000000000000000, 1.536785503168680995E-16 ) ) ;
#167 = DIRECTION ( 'NONE',  ( 1.000000000000000000, -1.224646799147353207E-16, -2.249565377136128006E-32 ) ) ;
#168 = EDGE_CURVE ( 'NONE', #264, #136, #165, .T. ) ;
#169 = APPROVAL ( #207, 'UNSPECIFIED' ) ;
#170 = CARTESIAN_POINT ( 'NONE',  ( 0.000000000000000000, 0.000000000000000000, 0.01315000000000000023 ) ) ;
#171 = DATE_TIME_ROLE ( 'creation_date' ) ;
#172 = CARTESIAN_POINT ( 'NONE',  ( 0.000000000000000000, 3.449189460760630143E-18, 0.006148866978194663518 ) ) ;
#173 = CC_DESIGN_PERSON_AND_ORGANIZATION_ASSIGNMENT ( #59, #147, ( #15 ) ) ;
#174 = ORIENTED_EDGE ( 'NONE', *, *, #265, .T. ) ;
#175 = EDGE_CURVE ( 'NONE', #118, #136, #232, .T. ) ;
#176 = AXIS2_PLACEMENT_3D ( 'NONE', #110, #63, #44 ) ;
#177 = ADVANCED_FACE ( 'NONE', ( #106 ), #279, .F. ) ;
#178 = FACE_OUTER_BOUND ( 'NONE', #74, .T. ) ;
#179 = ADVANCED_BREP_SHAPE_REPRESENTATION ( 'TTN225627-E0W', ( #266, #22 ), #285 ) ;
#180 = PERSON_AND_ORGANIZATION ( #115, #146 ) ;
#181 = EDGE_CURVE ( 'NONE', #30, #103, #226, .T. ) ;
#182 = ORIENTED_EDGE ( 'NONE', *, *, #303, .F. ) ;
#183 = ADVANCED_FACE ( 'NONE', ( #47 ), #209, .T. ) ;
#184 = SPHERICAL_SURFACE ( 'NONE', #69, 0.02257599999999999885 ) ;
#185 = DIRECTION ( 'NONE',  ( 0.000000000000000000, 1.836909530733571804E-16, -1.000000000000000000 ) ) ;
#186 = PERSON_AND_ORGANIZATION ( #115, #146 ) ;
#187 = ORIENTED_EDGE ( 'NONE', *, *, #274, .T. ) ;
#188 = PRODUCT_RELATED_PRODUCT_CATEGORY ( 'detail', '', ( #291 ) ) ;
#189 = ORIENTED_EDGE ( 'NONE', *, *, #181, .T. ) ;
#190 = CARTESIAN_POINT ( 'NONE',  ( 1.555301434917138519E-18, 0.01269999999999999948, 0.004464056043390780652 ) ) ;
#191 = DIRECTION ( 'NONE',  ( 0.000000000000000000, -1.000000000000000000, -1.707404996040164512E-16 ) ) ;
#192 = AXIS2_PLACEMENT_3D ( 'NONE', #91, #114, #193 ) ;
#193 = DIRECTION ( 'NONE',  ( 0.000000000000000000, 1.000000000000000000, 2.048885995248197414E-16 ) ) ;
#194 = EDGE_LOOP ( 'NONE', ( #62, #123, #151, #250 ) ) ;
#195 = VECTOR ( 'NONE', #108, 1.000000000000000000 ) ;
#196 = EDGE_CURVE ( 'NONE', #136, #118, #259, .T. ) ;
#197 = CC_DESIGN_DATE_AND_TIME_ASSIGNMENT ( #8, #171, ( #15 ) ) ;
#198 = DIRECTION ( 'NONE',  ( -0.000000000000000000, -1.836909530733566873E-16, 1.000000000000000000 ) ) ;
#199 = DIRECTION ( 'NONE',  ( 0.000000000000000000, -1.000000000000000000, -2.048885995248197414E-16 ) ) ;
#200 = DIRECTION ( 'NONE',  ( -1.000000000000000000, 0.000000000000000000, -0.000000000000000000 ) ) ;
#201 = ORIENTED_EDGE ( 'NONE', *, *, #218, .T. ) ;
#202 = AXIS2_PLACEMENT_3D ( 'NONE', #137, #313, #162 ) ;
#203 = APPLICATION_PROTOCOL_DEFINITION ( 'international standard', 'config_control_design', 1994, #294 ) ;
#204 = PERSON_AND_ORGANIZATION_ROLE ( 'classification_officer' ) ;
#205 = PERSON_AND_ORGANIZATION_ROLE ( 'design_owner' ) ;
#206 = LOCAL_TIME ( 11, 55, 21.00000000000000000, #220 ) ;
#207 = APPROVAL_STATUS ( 'not_yet_approved' ) ;
#208 = COORDINATED_UNIVERSAL_TIME_OFFSET ( 5, 0, .BEHIND. ) ;
#209 = CONICAL_SURFACE ( 'NONE', #126, 0.01269999999999999948, 0.3052557937996923654 ) ;
#210 = PRODUCT_DEFINITION_SHAPE ( 'NONE', 'NONE',  #15 ) ;
#211 = ORIENTED_EDGE ( 'NONE', *, *, #280, .T. ) ;
#212 = CC_DESIGN_APPROVAL ( #169, ( #35 ) ) ;
#213 = ADVANCED_FACE ( 'NONE', ( #302 ), #284, .T. ) ;
#214 = CARTESIAN_POINT ( 'NONE',  ( 1.555301434917138519E-18, 0.01269999999999999948, 0.006060904875677712404 ) ) ;
#215 = APPROVAL_DATE_TIME ( #325, #251 ) ;
#216 = ORIENTED_EDGE ( 'NONE', *, *, #303, .T. ) ;
#217 = CARTESIAN_POINT ( 'NONE',  ( 0.000000000000000000, -3.883329694609415568E-19, 0.004464056043390778050 ) ) ;
#218 = EDGE_CURVE ( 'NONE', #311, #53, #38, .T. ) ;
#219 = CARTESIAN_POINT ( 'NONE',  ( 0.000000000000000000, -0.01269999999999999948, 0.002349999999999997924 ) ) ;
#220 = COORDINATED_UNIVERSAL_TIME_OFFSET ( 5, 0, .BEHIND. ) ;
#221 = CIRCLE ( 'NONE', #233, 0.01253375647926141187 ) ;
#222 = CARTESIAN_POINT ( 'NONE',  ( 0.000000000000000000, 1.898108503297828032E-18, -0.002349999999999999659 ) ) ;
#223 = EDGE_CURVE ( 'NONE', #118, #53, #19, .T. ) ;
#224 = DIRECTION ( 'NONE',  ( -0.000000000000000000, -1.836909530733566873E-16, 1.000000000000000000 ) ) ;
#225 = EDGE_LOOP ( 'NONE', ( #281, #304, #71, #159 ) ) ;
#226 = CIRCLE ( 'NONE', #105, 0.02257599999999999885 ) ;
#227 = EDGE_LOOP ( 'NONE', ( #238, #301, #216 ) ) ;
#228 = LINE ( 'NONE', #219, #67 ) ;
#229 = AXIS2_PLACEMENT_3D ( 'NONE', #87, #270, #64 ) ;
#230 = APPROVAL_STATUS ( 'not_yet_approved' ) ;
#231 = ADVANCED_FACE ( 'NONE', ( #234 ), #90, .T. ) ;
#232 = CIRCLE ( 'NONE', #244, 0.01269999999999999948 ) ;
#233 = AXIS2_PLACEMENT_3D ( 'NONE', #172, #143, #119 ) ;
#234 = FACE_OUTER_BOUND ( 'NONE', #153, .T. ) ;
#235 = EDGE_CURVE ( 'NONE', #288, #308, #129, .T. ) ;
#236 = EDGE_CURVE ( 'NONE', #53, #311, #4, .T. ) ;
#237 = DATE_AND_TIME ( #248, #98 ) ;
#238 = ORIENTED_EDGE ( 'NONE', *, *, #181, .F. ) ;
#239 = CIRCLE ( 'NONE', #73, 0.02257599999999999885 ) ;
#240 = CARTESIAN_POINT ( 'NONE',  ( 0.000000000000000000, 0.000000000000000000, 0.002350000000000000092 ) ) ;
#241 = DIRECTION ( 'NONE',  ( -1.224646799147353207E-16, -1.000000000000000000, 0.000000000000000000 ) ) ;
#242 = ORIENTED_EDGE ( 'NONE', *, *, #300, .T. ) ;
#243 = CARTESIAN_POINT ( 'NONE',  ( 1.534942475361988511E-18, -0.01253375647926141014, 0.006148866978194660916 ) ) ;
#244 = AXIS2_PLACEMENT_3D ( 'NONE', #39, #224, #315 ) ;
#245 = DIRECTION ( 'NONE',  ( 0.000000000000000000, 1.836909530733571804E-16, -1.000000000000000000 ) ) ;
#246 = EDGE_CURVE ( 'NONE', #264, #308, #77, .T. ) ;
#247 = ORIENTED_EDGE ( 'NONE', *, *, #196, .T. ) ;
#248 = CALENDAR_DATE ( 2022, 12, 8 ) ;
#249 = DIRECTION ( 'NONE',  ( 0.000000000000000000, 0.000000000000000000, -1.000000000000000000 ) ) ;
#250 = ORIENTED_EDGE ( 'NONE', *, *, #175, .F. ) ;
#251 = APPROVAL ( #230, 'UNSPECIFIED' ) ;
#252 = DIRECTION ( 'NONE',  ( 1.224646799147353207E-16, 1.000000000000000000, 0.000000000000000000 ) ) ;
#253 = DIRECTION ( 'NONE',  ( 0.000000000000000000, -1.000000000000000000, -2.076061728397762798E-16 ) ) ;
#254 = ORIENTED_EDGE ( 'NONE', *, *, #280, .F. ) ;
#255 = DIRECTION ( 'NONE',  ( 3.680518630816082694E-17, 0.3005371535187615906, 0.9537701082309303358 ) ) ;
#256 = DIRECTION ( 'NONE',  ( -0.000000000000000000, -1.836909530733571804E-16, 1.000000000000000000 ) ) ;
#257 = PERSON_AND_ORGANIZATION ( #115, #146 ) ;
#258 = EDGE_CURVE ( 'NONE', #103, #53, #102, .T. ) ;
#259 = CIRCLE ( 'NONE', #142, 0.01269999999999999948 ) ;
#260 = APPROVAL_PERSON_ORGANIZATION ( #133, #251, #93 ) ;
#261 = ORIENTED_EDGE ( 'NONE', *, *, #196, .F. ) ;
#262 = LINE ( 'NONE', #243, #155 ) ;
#263 = AXIS2_PLACEMENT_3D ( 'NONE', #88, #68, #321 ) ;
#264 = VERTEX_POINT ( 'NONE', #61 ) ;
#265 = EDGE_CURVE ( 'NONE', #308, #264, #312, .T. ) ;
#266 = MANIFOLD_SOLID_BREP ( 'TTN225639-1-solid1', #319 ) ;
#267 = DIRECTION ( 'NONE',  ( 0.000000000000000000, 1.000000000000000000, 1.536785503168680995E-16 ) ) ;
#268 = AXIS2_PLACEMENT_3D ( 'NONE', #170, #200, #124 ) ;
#269 = SHAPE_DEFINITION_REPRESENTATION ( #210, #179 ) ;
#270 = DIRECTION ( 'NONE',  ( 0.000000000000000000, 1.836909530733571804E-16, -1.000000000000000000 ) ) ;
#271 = VECTOR ( 'NONE', #255, 1.000000000000000000 ) ;
#272 = ORIENTED_EDGE ( 'NONE', *, *, #236, .T. ) ;
#273 = CARTESIAN_POINT ( 'NONE',  ( 0.000000000000000000, -3.883329694609415568E-19, 0.004464056043390778050 ) ) ;
#274 = EDGE_CURVE ( 'NONE', #103, #51, #221, .T. ) ;
#275 = DIRECTION ( 'NONE',  ( 1.000000000000000000, 0.000000000000000000, 0.000000000000000000 ) ) ;
#276 = DIRECTION ( 'NONE',  ( -1.000000000000000000, 0.000000000000000000, 0.000000000000000000 ) ) ;
#277 = LOCAL_TIME ( 11, 55, 21.00000000000000000, #109 ) ;
#278 = CARTESIAN_POINT ( 'NONE',  ( 1.555301434917138519E-18, 0.01269999999999999948, 0.002350000000000002261 ) ) ;
#279 = SPHERICAL_SURFACE ( 'NONE', #75, 0.02257599999999999885 ) ;
#280 = EDGE_CURVE ( 'NONE', #288, #264, #25, .T. ) ;
#281 = ORIENTED_EDGE ( 'NONE', *, *, #45, .F. ) ;
#282 = MECHANICAL_CONTEXT ( 'NONE', #97, 'mechanical' ) ;
#283 = DATE_AND_TIME ( #163, #277 ) ;
#284 = CONICAL_SURFACE ( 'NONE', #156, 0.01253375647926141014, 1.084128159201444896 ) ;
#285 =( GEOMETRIC_REPRESENTATION_CONTEXT ( 3 ) GLOBAL_UNCERTAINTY_ASSIGNED_CONTEXT ( ( #152 ) ) GLOBAL_UNIT_ASSIGNED_CONTEXT ( ( #298, #96, #120 ) ) REPRESENTATION_CONTEXT ( 'NONE', 'WORKASPACE' ) );
#286 = DATE_AND_TIME ( #14, #2 ) ;
#287 = LINE ( 'NONE', #21, #271 ) ;
#288 = VERTEX_POINT ( 'NONE', #222 ) ;
#289 = CARTESIAN_POINT ( 'NONE',  ( -1.534942475361988703E-18, -0.01253375647926140840, 0.006148866978194660049 ) ) ;
#290 = DIRECTION ( 'NONE',  ( -1.000000000000000000, 1.224646799147353207E-16, 2.249565377136128006E-32 ) ) ;
#291 = PRODUCT ( 'TTN225627-E0W', 'TTN225627-E0W', '', ( #282 ) ) ;
#292 = ORIENTED_EDGE ( 'NONE', *, *, #223, .F. ) ;
#293 = FACE_OUTER_BOUND ( 'NONE', #80, .T. ) ;
#294 = APPLICATION_CONTEXT ( 'configuration controlled 3d designs of mechanical parts and assemblies' ) ;
#295 = FACE_OUTER_BOUND ( 'NONE', #326, .T. ) ;
#296 = DIRECTION ( 'NONE',  ( 0.000000000000000000, 0.000000000000000000, 1.000000000000000000 ) ) ;
#297 = COORDINATED_UNIVERSAL_TIME_OFFSET ( 5, 0, .BEHIND. ) ;
#298 =( LENGTH_UNIT ( ) NAMED_UNIT ( * ) SI_UNIT ( $, .METRE. ) );
#299 = APPLICATION_PROTOCOL_DEFINITION ( 'international standard', 'config_control_design', 1994, #97 ) ;
#300 = EDGE_CURVE ( 'NONE', #308, #118, #287, .T. ) ;
#301 = ORIENTED_EDGE ( 'NONE', *, *, #27, .T. ) ;
#302 = FACE_OUTER_BOUND ( 'NONE', #225, .T. ) ;
#303 = EDGE_CURVE ( 'NONE', #51, #103, #134, .T. ) ;
#304 = ORIENTED_EDGE ( 'NONE', *, *, #274, .F. ) ;
#305 = DIRECTION ( 'NONE',  ( 0.000000000000000000, -1.000000000000000000, -2.048885995248197414E-16 ) ) ;
#306 = DESIGN_CONTEXT ( 'detailed design', #294, 'design' ) ;
#307 = CARTESIAN_POINT ( 'NONE',  ( 0.000000000000000000, 0.000000000000000000, 0.02492600000000000371 ) ) ;
#308 = VERTEX_POINT ( 'NONE', #161 ) ;
#309 = CARTESIAN_POINT ( 'NONE',  ( 0.000000000000000000, 0.01253375647926141534, 0.006148866978194666988 ) ) ;
#310 = CC_DESIGN_DATE_AND_TIME_ASSIGNMENT ( #283, #95, ( #107 ) ) ;
#311 = VERTEX_POINT ( 'NONE', #26 ) ;
#312 = CIRCLE ( 'NONE', #263, 0.01258658274986970346 ) ;
#313 = DIRECTION ( 'NONE',  ( 0.000000000000000000, 1.836909530733566873E-16, -1.000000000000000000 ) ) ;
#314 = CONICAL_SURFACE ( 'NONE', #150, 0.01253375647926141014, 1.084128159201444896 ) ;
#315 = DIRECTION ( 'NONE',  ( 0.000000000000000000, -1.000000000000000000, -2.048885995248197414E-16 ) ) ;
#316 = CARTESIAN_POINT ( 'NONE',  ( 0.000000000000000000, 0.000000000000000000, 0.02492600000000000371 ) ) ;
#317 = LOCAL_TIME ( 11, 55, 21.00000000000000000, #297 ) ;
#318 = DIRECTION ( 'NONE',  ( 0.000000000000000000, -1.000000000000000000, -2.048885995248197414E-16 ) ) ;
#319 = CLOSED_SHELL ( 'NONE', ( #72, #9, #33, #231, #177, #122, #78, #31, #183, #213 ) ) ;
#320 = SPHERICAL_SURFACE ( 'NONE', #92, 0.01549999999999999989 ) ;
#321 = DIRECTION ( 'NONE',  ( 0.000000000000000000, -1.000000000000000000, -2.067348434182540612E-16 ) ) ;
#322 = PERSON_AND_ORGANIZATION_ROLE ( 'creator' ) ;
#323 = CARTESIAN_POINT ( 'NONE',  ( 0.000000000000000000, 0.000000000000000000, 0.000000000000000000 ) ) ;
#324 = AXIS2_PLACEMENT_3D ( 'NONE', #145, #256, #253 ) ;
#325 = DATE_AND_TIME ( #139, #206 ) ;
#326 = EDGE_LOOP ( 'NONE', ( #99, #242, #261, #128 ) ) ;
#327 = APPROVAL_STATUS ( 'not_yet_approved' ) ;
ENDSEC;
END-ISO-10303-21;
