ISO-10303-21;
HEADER;
FILE_DESCRIPTION (( 'STEP AP203' ),
    '1' );
FILE_NAME ('Web Model 48459MX_48463.step',
    '2017-10-30T13:23:01',
    ( '' ),
    ( '' ),
    'SwSTEP 2.0',
    'SolidWorks 2016',
    '' );
FILE_SCHEMA (( 'CONFIG_CONTROL_DESIGN' ));
ENDSEC;

DATA;
#1 = PERSON_AND_ORGANIZATION ( #53, #211 ) ;
#2 = CARTESIAN_POINT ( 'NONE',  ( 24.99999999999999600, 25.00000000000000400, -4.750000000000000000 ) ) ;
#3 = CARTESIAN_POINT ( 'NONE',  ( -25.00000000000000400, 24.99999999999999600, 4.750000000000000000 ) ) ;
#4 = CALENDAR_DATE ( 2017, 30, 10 ) ;
#5 = VERTEX_POINT ( 'NONE', #55 ) ;
#6 = EDGE_CURVE ( 'NONE', #83, #138, #92, .T. ) ;
#7 = CARTESIAN_POINT ( 'NONE',  ( 24.99999999999999600, -24.99999999999999600, -4.750000000000000000 ) ) ;
#8 = CALENDAR_DATE ( 2017, 30, 10 ) ;
#9 = EDGE_LOOP ( 'NONE', ( #198, #104, #80, #163 ) ) ;
#10 = APPROVAL_STATUS ( 'not_yet_approved' ) ;
#11 = APPROVAL_ROLE ( '' ) ;
#12 = LOCAL_TIME ( 9, 23, 1.000000000000000000, #102 ) ;
#13 = ORIENTED_EDGE ( 'NONE', *, *, #166, .T. ) ;
#14 = PRODUCT_DEFINITION_FORMATION_WITH_SPECIFIED_SOURCE ( 'ANY', '', #43, .NOT_KNOWN. ) ;
#15 = FACE_OUTER_BOUND ( 'NONE', #122, .T. ) ;
#16 = VERTEX_POINT ( 'NONE', #2 ) ;
#17 = COORDINATED_UNIVERSAL_TIME_OFFSET ( 5, 0, .BEHIND. ) ;
#18 =( GEOMETRIC_REPRESENTATION_CONTEXT ( 3 ) GLOBAL_UNCERTAINTY_ASSIGNED_CONTEXT ( ( #194 ) ) GLOBAL_UNIT_ASSIGNED_CONTEXT ( ( #229, #110, #210 ) ) REPRESENTATION_CONTEXT ( 'NONE', 'WORKASPACE' ) );
#19 = FACE_OUTER_BOUND ( 'NONE', #159, .T. ) ;
#20 = ADVANCED_FACE ( 'NONE', ( #19 ), #165, .T. ) ;
#21 = CARTESIAN_POINT ( 'NONE',  ( 24.99999999999999600, -24.99999999999999600, 4.750000000000000000 ) ) ;
#22 = ADVANCED_BREP_SHAPE_REPRESENTATION ( 'Web Model 48459MX_48463', ( #148, #103 ), #18 ) ;
#23 = CARTESIAN_POINT ( 'NONE',  ( 24.99999999999999600, -24.99999999999999600, 4.750000000000000000 ) ) ;
#24 = ADVANCED_FACE ( 'NONE', ( #236 ), #41, .F. ) ;
#25 = DIRECTION ( 'NONE',  ( 1.000000000000000000, 1.387778780781445700E-016, 0.0000000000000000000 ) ) ;
#26 = LINE ( 'NONE', #95, #178 ) ;
#27 = ORIENTED_EDGE ( 'NONE', *, *, #31, .T. ) ;
#28 = SECURITY_CLASSIFICATION_LEVEL ( 'unclassified' ) ;
#29 = LOCAL_TIME ( 9, 23, 1.000000000000000000, #17 ) ;
#30 = CC_DESIGN_DATE_AND_TIME_ASSIGNMENT ( #96, #61, ( #231 ) ) ;
#31 = EDGE_CURVE ( 'NONE', #66, #153, #85, .T. ) ;
#32 = LINE ( 'NONE', #93, #50 ) ;
#33 = ORIENTED_EDGE ( 'NONE', *, *, #98, .T. ) ;
#34 = AXIS2_PLACEMENT_3D ( 'NONE', #130, #204, #25 ) ;
#35 = VECTOR ( 'NONE', #151, 1000.000000000000000 ) ;
#36 = CC_DESIGN_PERSON_AND_ORGANIZATION_ASSIGNMENT ( #214, #174, ( #231 ) ) ;
#37 = DIRECTION ( 'NONE',  ( 0.0000000000000000000, 1.000000000000000000, 0.0000000000000000000 ) ) ;
#38 = CALENDAR_DATE ( 2017, 30, 10 ) ;
#39 = VECTOR ( 'NONE', #126, 1000.000000000000000 ) ;
#40 = EDGE_CURVE ( 'NONE', #218, #16, #116, .T. ) ;
#41 = PLANE ( 'NONE',  #101 ) ;
#42 = DESIGN_CONTEXT ( 'detailed design', #232, 'design' ) ;
#43 = PRODUCT ( 'Web Model 48459MX_48463', 'Web Model 48459MX_48463', '', ( #45 ) ) ;
#44 = PLANE ( 'NONE',  #169 ) ;
#45 = MECHANICAL_CONTEXT ( 'NONE', #112, 'mechanical' ) ;
#46 = ORIENTED_EDGE ( 'NONE', *, *, #40, .T. ) ;
#47 = DIRECTION ( 'NONE',  ( -0.0000000000000000000, -0.0000000000000000000, -1.000000000000000000 ) ) ;
#48 = APPLICATION_PROTOCOL_DEFINITION ( 'international standard', 'config_control_design', 1994, #112 ) ;
#49 = LOCAL_TIME ( 9, 23, 1.000000000000000000, #183 ) ;
#50 = VECTOR ( 'NONE', #37, 1000.000000000000000 ) ;
#51 = EDGE_CURVE ( 'NONE', #218, #157, #217, .T. ) ;
#52 = APPROVAL_DATE_TIME ( #200, #176 ) ;
#53 = PERSON ( 'UNSPECIFIED', 'UNSPECIFIED', 'UNSPECIFIED', ('UNSPECIFIED'), ('UNSPECIFIED'), ('UNSPECIFIED') ) ;
#54 = SHAPE_DEFINITION_REPRESENTATION ( #59, #22 ) ;
#55 = CARTESIAN_POINT ( 'NONE',  ( -25.00000000000000400, 24.99999999999999600, -4.750000000000000000 ) ) ;
#56 = CARTESIAN_POINT ( 'NONE',  ( 24.99999999999999600, 25.00000000000000400, 4.750000000000000000 ) ) ;
#57 = ORIENTED_EDGE ( 'NONE', *, *, #233, .F. ) ;
#58 = ORIENTED_EDGE ( 'NONE', *, *, #51, .F. ) ;
#59 = PRODUCT_DEFINITION_SHAPE ( 'NONE', 'NONE',  #99 ) ;
#60 = CARTESIAN_POINT ( 'NONE',  ( -25.00000000000000400, -25.00000000000000400, 4.750000000000000000 ) ) ;
#61 = DATE_TIME_ROLE ( 'classification_date' ) ;
#62 = APPROVAL_DATE_TIME ( #197, #155 ) ;
#63 = AXIS2_PLACEMENT_3D ( 'NONE', #74, #224, #223 ) ;
#64 = DIRECTION ( 'NONE',  ( 0.0000000000000000000, 0.0000000000000000000, -1.000000000000000000 ) ) ;
#65 = VECTOR ( 'NONE', #227, 1000.000000000000000 ) ;
#66 = VERTEX_POINT ( 'NONE', #184 ) ;
#67 = PRODUCT_RELATED_PRODUCT_CATEGORY ( 'detail', '', ( #43 ) ) ;
#68 = ORIENTED_EDGE ( 'NONE', *, *, #73, .F. ) ;
#69 = LINE ( 'NONE', #94, #234 ) ;
#70 = ORIENTED_EDGE ( 'NONE', *, *, #149, .F. ) ;
#71 = DIRECTION ( 'NONE',  ( 0.0000000000000000000, -0.0000000000000000000, 1.000000000000000000 ) ) ;
#72 = DIRECTION ( 'NONE',  ( 1.000000000000000000, 1.387778780781445700E-016, -0.0000000000000000000 ) ) ;
#73 = EDGE_CURVE ( 'NONE', #157, #5, #137, .T. ) ;
#74 = CARTESIAN_POINT ( 'NONE',  ( 0.0000000000000000000, 0.0000000000000000000, 4.750000000000000000 ) ) ;
#75 = VECTOR ( 'NONE', #172, 1000.000000000000000 ) ;
#76 = APPROVAL_ROLE ( '' ) ;
#77 = CC_DESIGN_APPROVAL ( #115, ( #99 ) ) ;
#78 = DIRECTION ( 'NONE',  ( 1.000000000000000000, 0.0000000000000000000, 0.0000000000000000000 ) ) ;
#79 = APPLICATION_PROTOCOL_DEFINITION ( 'international standard', 'config_control_design', 1994, #232 ) ;
#80 = ORIENTED_EDGE ( 'NONE', *, *, #86, .F. ) ;
#81 = CARTESIAN_POINT ( 'NONE',  ( 24.99999999999999600, 25.00000000000000400, -4.750000000000000000 ) ) ;
#82 = VECTOR ( 'NONE', #187, 1000.000000000000000 ) ;
#83 = VERTEX_POINT ( 'NONE', #124 ) ;
#84 = DATE_AND_TIME ( #113, #29 ) ;
#85 = LINE ( 'NONE', #7, #39 ) ;
#86 = EDGE_CURVE ( 'NONE', #153, #16, #32, .T. ) ;
#87 = PERSON_AND_ORGANIZATION ( #53, #211 ) ;
#88 = DIRECTION ( 'NONE',  ( -0.0000000000000000000, -0.0000000000000000000, -1.000000000000000000 ) ) ;
#89 = CARTESIAN_POINT ( 'NONE',  ( 24.99999999999999600, -24.99999999999999600, 4.750000000000000000 ) ) ;
#90 = DIRECTION ( 'NONE',  ( -1.000000000000000000, -1.387778780781445700E-016, 0.0000000000000000000 ) ) ;
#91 = ADVANCED_FACE ( 'NONE', ( #134 ), #167, .F. ) ;
#92 = LINE ( 'NONE', #125, #215 ) ;
#93 = CARTESIAN_POINT ( 'NONE',  ( 24.99999999999999600, -24.99999999999999600, -4.750000000000000000 ) ) ;
#94 = CARTESIAN_POINT ( 'NONE',  ( 24.99999999999999600, -24.99999999999999600, 4.750000000000000000 ) ) ;
#95 = CARTESIAN_POINT ( 'NONE',  ( -25.00000000000000400, -25.00000000000000400, 4.750000000000000000 ) ) ;
#96 = DATE_AND_TIME ( #38, #142 ) ;
#97 = PERSON_AND_ORGANIZATION ( #53, #211 ) ;
#98 = EDGE_CURVE ( 'NONE', #157, #83, #120, .T. ) ;
#99 = PRODUCT_DEFINITION ( 'UNKNOWN', '', #14, #42 ) ;
#100 = ORIENTED_EDGE ( 'NONE', *, *, #233, .T. ) ;
#101 = AXIS2_PLACEMENT_3D ( 'NONE', #89, #164, #107 ) ;
#102 = COORDINATED_UNIVERSAL_TIME_OFFSET ( 5, 0, .BEHIND. ) ;
#103 = AXIS2_PLACEMENT_3D ( 'NONE', #154, #230, #175 ) ;
#104 = ORIENTED_EDGE ( 'NONE', *, *, #166, .F. ) ;
#105 = EDGE_LOOP ( 'NONE', ( #193, #212, #70, #117 ) ) ;
#106 = VECTOR ( 'NONE', #213, 1000.000000000000000 ) ;
#107 = DIRECTION ( 'NONE',  ( 0.0000000000000000000, 0.0000000000000000000, 1.000000000000000000 ) ) ;
#108 = PLANE ( 'NONE',  #34 ) ;
#109 = ORIENTED_EDGE ( 'NONE', *, *, #149, .T. ) ;
#110 =( NAMED_UNIT ( * ) PLANE_ANGLE_UNIT ( ) SI_UNIT ( $, .RADIAN. ) );
#111 = DATE_TIME_ROLE ( 'creation_date' ) ;
#112 = APPLICATION_CONTEXT ( 'configuration controlled 3d designs of mechanical parts and assemblies' ) ;
#113 = CALENDAR_DATE ( 2017, 30, 10 ) ;
#114 = PERSON_AND_ORGANIZATION ( #53, #211 ) ;
#115 = APPROVAL ( #173, 'UNSPECIFIED' ) ;
#116 = LINE ( 'NONE', #208, #188 ) ;
#117 = ORIENTED_EDGE ( 'NONE', *, *, #118, .T. ) ;
#118 = EDGE_CURVE ( 'NONE', #138, #153, #69, .T. ) ;
#119 = APPROVAL_ROLE ( '' ) ;
#120 = LINE ( 'NONE', #185, #82 ) ;
#121 = CC_DESIGN_PERSON_AND_ORGANIZATION_ASSIGNMENT ( #114, #131, ( #43 ) ) ;
#122 = EDGE_LOOP ( 'NONE', ( #170, #57, #145, #189 ) ) ;
#123 = LINE ( 'NONE', #23, #65 ) ;
#124 = CARTESIAN_POINT ( 'NONE',  ( -25.00000000000000400, -25.00000000000000400, 4.750000000000000000 ) ) ;
#125 = CARTESIAN_POINT ( 'NONE',  ( 24.99999999999999600, -24.99999999999999600, 4.750000000000000000 ) ) ;
#126 = DIRECTION ( 'NONE',  ( 1.000000000000000000, 1.387778780781445700E-016, -0.0000000000000000000 ) ) ;
#127 = ADVANCED_FACE ( 'NONE', ( #222 ), #221, .F. ) ;
#128 = FACE_OUTER_BOUND ( 'NONE', #177, .T. ) ;
#129 = CC_DESIGN_APPROVAL ( #176, ( #14 ) ) ;
#130 = CARTESIAN_POINT ( 'NONE',  ( 24.99999999999999600, 25.00000000000000400, 4.750000000000000000 ) ) ;
#131 = PERSON_AND_ORGANIZATION_ROLE ( 'design_owner' ) ;
#132 = APPROVAL_PERSON_ORGANIZATION ( #179, #155, #119 ) ;
#133 = PERSON_AND_ORGANIZATION_ROLE ( 'design_supplier' ) ;
#134 = FACE_OUTER_BOUND ( 'NONE', #9, .T. ) ;
#135 = COORDINATED_UNIVERSAL_TIME_OFFSET ( 5, 0, .BEHIND. ) ;
#136 = AXIS2_PLACEMENT_3D ( 'NONE', #141, #71, #146 ) ;
#137 = LINE ( 'NONE', #3, #161 ) ;
#138 = VERTEX_POINT ( 'NONE', #225 ) ;
#139 = ORIENTED_EDGE ( 'NONE', *, *, #118, .F. ) ;
#140 = CARTESIAN_POINT ( 'NONE',  ( -25.00000000000000400, 24.99999999999999600, 4.750000000000000000 ) ) ;
#141 = CARTESIAN_POINT ( 'NONE',  ( 0.0000000000000000000, 0.0000000000000000000, -4.750000000000000000 ) ) ;
#142 = LOCAL_TIME ( 9, 23, 1.000000000000000000, #235 ) ;
#143 = APPROVAL_DATE_TIME ( #201, #115 ) ;
#144 = AXIS2_PLACEMENT_3D ( 'NONE', #21, #207, #90 ) ;
#145 = ORIENTED_EDGE ( 'NONE', *, *, #98, .F. ) ;
#146 = DIRECTION ( 'NONE',  ( 1.000000000000000000, 0.0000000000000000000, -0.0000000000000000000 ) ) ;
#147 = CARTESIAN_POINT ( 'NONE',  ( 24.99999999999999600, 25.00000000000000400, 4.750000000000000000 ) ) ;
#148 = MANIFOLD_SOLID_BREP ( 'Boss-Extrude1', #181 ) ;
#149 = EDGE_CURVE ( 'NONE', #138, #218, #123, .T. ) ;
#150 = ADVANCED_FACE ( 'NONE', ( #128 ), #108, .F. ) ;
#151 = DIRECTION ( 'NONE',  ( -1.000000000000000000, -1.387778780781445700E-016, 0.0000000000000000000 ) ) ;
#152 = LOCAL_TIME ( 9, 23, 1.000000000000000000, #135 ) ;
#153 = VERTEX_POINT ( 'NONE', #190 ) ;
#154 = CARTESIAN_POINT ( 'NONE',  ( 0.0000000000000000000, 0.0000000000000000000, 0.0000000000000000000 ) ) ;
#155 = APPROVAL ( #196, 'UNSPECIFIED' ) ;
#156 = PERSON_AND_ORGANIZATION_ROLE ( 'creator' ) ;
#157 = VERTEX_POINT ( 'NONE', #140 ) ;
#158 = CC_DESIGN_APPROVAL ( #155, ( #231 ) ) ;
#159 = EDGE_LOOP ( 'NONE', ( #33, #237, #109, #199 ) ) ;
#160 = ORIENTED_EDGE ( 'NONE', *, *, #6, .F. ) ;
#161 = VECTOR ( 'NONE', #206, 1000.000000000000000 ) ;
#162 = CC_DESIGN_PERSON_AND_ORGANIZATION_ASSIGNMENT ( #87, #156, ( #14 ) ) ;
#163 = ORIENTED_EDGE ( 'NONE', *, *, #31, .F. ) ;
#164 = DIRECTION ( 'NONE',  ( -1.000000000000000000, 0.0000000000000000000, 0.0000000000000000000 ) ) ;
#165 = PLANE ( 'NONE',  #63 ) ;
#166 = EDGE_CURVE ( 'NONE', #16, #5, #180, .T. ) ;
#167 = PLANE ( 'NONE',  #136 ) ;
#168 = CALENDAR_DATE ( 2017, 30, 10 ) ;
#169 = AXIS2_PLACEMENT_3D ( 'NONE', #60, #78, #64 ) ;
#170 = ORIENTED_EDGE ( 'NONE', *, *, #191, .T. ) ;
#171 = DIRECTION ( 'NONE',  ( -0.0000000000000000000, -0.0000000000000000000, -1.000000000000000000 ) ) ;
#172 = DIRECTION ( 'NONE',  ( -1.000000000000000000, -1.387778780781445700E-016, 0.0000000000000000000 ) ) ;
#173 = APPROVAL_STATUS ( 'not_yet_approved' ) ;
#174 = PERSON_AND_ORGANIZATION_ROLE ( 'classification_officer' ) ;
#175 = DIRECTION ( 'NONE',  ( 1.000000000000000000, 0.0000000000000000000, 0.0000000000000000000 ) ) ;
#176 = APPROVAL ( #10, 'UNSPECIFIED' ) ;
#177 = EDGE_LOOP ( 'NONE', ( #13, #68, #58, #46 ) ) ;
#178 = VECTOR ( 'NONE', #47, 1000.000000000000000 ) ;
#179 = PERSON_AND_ORGANIZATION ( #53, #211 ) ;
#180 = LINE ( 'NONE', #81, #75 ) ;
#181 = CLOSED_SHELL ( 'NONE', ( #228, #127, #24, #150, #20, #91 ) ) ;
#182 = CC_DESIGN_SECURITY_CLASSIFICATION ( #231, ( #14 ) ) ;
#183 = COORDINATED_UNIVERSAL_TIME_OFFSET ( 5, 0, .BEHIND. ) ;
#184 = CARTESIAN_POINT ( 'NONE',  ( -25.00000000000000400, -25.00000000000000400, -4.750000000000000000 ) ) ;
#185 = CARTESIAN_POINT ( 'NONE',  ( -25.00000000000000400, -25.00000000000000400, 4.750000000000000000 ) ) ;
#186 = PERSON_AND_ORGANIZATION ( #53, #211 ) ;
#187 = DIRECTION ( 'NONE',  ( -0.0000000000000000000, -1.000000000000000000, -0.0000000000000000000 ) ) ;
#188 = VECTOR ( 'NONE', #171, 1000.000000000000000 ) ;
#189 = ORIENTED_EDGE ( 'NONE', *, *, #73, .T. ) ;
#190 = CARTESIAN_POINT ( 'NONE',  ( 24.99999999999999600, -24.99999999999999600, -4.750000000000000000 ) ) ;
#191 = EDGE_CURVE ( 'NONE', #5, #66, #226, .T. ) ;
#192 = PERSON_AND_ORGANIZATION_ROLE ( 'creator' ) ;
#193 = ORIENTED_EDGE ( 'NONE', *, *, #86, .T. ) ;
#194 = UNCERTAINTY_MEASURE_WITH_UNIT (LENGTH_MEASURE( 1.000000000000000100E-005 ), #229, 'distance_accuracy_value', 'NONE');
#195 = CC_DESIGN_PERSON_AND_ORGANIZATION_ASSIGNMENT ( #1, #133, ( #14 ) ) ;
#196 = APPROVAL_STATUS ( 'not_yet_approved' ) ;
#197 = DATE_AND_TIME ( #8, #152 ) ;
#198 = ORIENTED_EDGE ( 'NONE', *, *, #191, .F. ) ;
#199 = ORIENTED_EDGE ( 'NONE', *, *, #51, .T. ) ;
#200 = DATE_AND_TIME ( #4, #49 ) ;
#201 = DATE_AND_TIME ( #168, #12 ) ;
#202 = EDGE_LOOP ( 'NONE', ( #27, #139, #160, #100 ) ) ;
#203 = APPROVAL_PERSON_ORGANIZATION ( #186, #176, #11 ) ;
#204 = DIRECTION ( 'NONE',  ( 1.387778780781445700E-016, -1.000000000000000000, 0.0000000000000000000 ) ) ;
#205 = PERSON_AND_ORGANIZATION ( #53, #211 ) ;
#206 = DIRECTION ( 'NONE',  ( -0.0000000000000000000, -0.0000000000000000000, -1.000000000000000000 ) ) ;
#207 = DIRECTION ( 'NONE',  ( -1.387778780781445700E-016, 1.000000000000000000, 0.0000000000000000000 ) ) ;
#208 = CARTESIAN_POINT ( 'NONE',  ( 24.99999999999999600, 25.00000000000000400, 4.750000000000000000 ) ) ;
#209 = CC_DESIGN_DATE_AND_TIME_ASSIGNMENT ( #84, #111, ( #99 ) ) ;
#210 =( NAMED_UNIT ( * ) SI_UNIT ( $, .STERADIAN. ) SOLID_ANGLE_UNIT ( ) );
#211 = ORGANIZATION ( 'UNSPECIFIED', 'UNSPECIFIED', '' ) ;
#212 = ORIENTED_EDGE ( 'NONE', *, *, #40, .F. ) ;
#213 = DIRECTION ( 'NONE',  ( -0.0000000000000000000, -1.000000000000000000, -0.0000000000000000000 ) ) ;
#214 = PERSON_AND_ORGANIZATION ( #53, #211 ) ;
#215 = VECTOR ( 'NONE', #72, 1000.000000000000000 ) ;
#216 = CARTESIAN_POINT ( 'NONE',  ( -25.00000000000000400, -25.00000000000000400, -4.750000000000000000 ) ) ;
#217 = LINE ( 'NONE', #56, #35 ) ;
#218 = VERTEX_POINT ( 'NONE', #147 ) ;
#219 = CC_DESIGN_PERSON_AND_ORGANIZATION_ASSIGNMENT ( #97, #192, ( #99 ) ) ;
#220 = APPROVAL_PERSON_ORGANIZATION ( #205, #115, #76 ) ;
#221 = PLANE ( 'NONE',  #144 ) ;
#222 = FACE_OUTER_BOUND ( 'NONE', #202, .T. ) ;
#223 = DIRECTION ( 'NONE',  ( 1.000000000000000000, 0.0000000000000000000, -0.0000000000000000000 ) ) ;
#224 = DIRECTION ( 'NONE',  ( 0.0000000000000000000, -0.0000000000000000000, 1.000000000000000000 ) ) ;
#225 = CARTESIAN_POINT ( 'NONE',  ( 24.99999999999999600, -24.99999999999999600, 4.750000000000000000 ) ) ;
#226 = LINE ( 'NONE', #216, #106 ) ;
#227 = DIRECTION ( 'NONE',  ( 0.0000000000000000000, 1.000000000000000000, 0.0000000000000000000 ) ) ;
#228 = ADVANCED_FACE ( 'NONE', ( #15 ), #44, .F. ) ;
#229 =( LENGTH_UNIT ( ) NAMED_UNIT ( * ) SI_UNIT ( .MILLI., .METRE. ) );
#230 = DIRECTION ( 'NONE',  ( 0.0000000000000000000, 0.0000000000000000000, 1.000000000000000000 ) ) ;
#231 = SECURITY_CLASSIFICATION ( '', '', #28 ) ;
#232 = APPLICATION_CONTEXT ( 'configuration controlled 3d designs of mechanical parts and assemblies' ) ;
#233 = EDGE_CURVE ( 'NONE', #83, #66, #26, .T. ) ;
#234 = VECTOR ( 'NONE', #88, 1000.000000000000000 ) ;
#235 = COORDINATED_UNIVERSAL_TIME_OFFSET ( 5, 0, .BEHIND. ) ;
#236 = FACE_OUTER_BOUND ( 'NONE', #105, .T. ) ;
#237 = ORIENTED_EDGE ( 'NONE', *, *, #6, .T. ) ;
ENDSEC;
END-ISO-10303-21;
