ISO-10303-21;
HEADER;
FILE_DESCRIPTION (( 'STEP AP203' ),
    '1' );
FILE_NAME ('20181-E0W.STEP',
    '2018-06-01T18:09:39',
    ( 'admin' ),
    ( '' ),
    'SwSTEP 2.0',
    'SolidWorks 2016',
    '' );
FILE_SCHEMA (( 'CONFIG_CONTROL_DESIGN' ));
ENDSEC;

DATA;
#1 = PERSON_AND_ORGANIZATION_ROLE ( 'classification_officer' ) ;
#2 = CARTESIAN_POINT ( 'NONE',  ( 3.061616997868383600E-017, 0.2499999999999999700, 0.09434974129879834800 ) ) ;
#3 =( GEOMETRIC_REPRESENTATION_CONTEXT ( 3 ) GLOBAL_UNCERTAINTY_ASSIGNED_CONTEXT ( ( #75 ) ) GLOBAL_UNIT_ASSIGNED_CONTEXT ( ( #154, #289, #288 ) ) REPRESENTATION_CONTEXT ( 'NONE', 'WORKASPACE' ) );
#4 = DIRECTION ( 'NONE',  ( 0.0000000000000000000, 0.0000000000000000000, 1.000000000000000000 ) ) ;
#5 = SECURITY_CLASSIFICATION_LEVEL ( 'unclassified' ) ;
#6 = CARTESIAN_POINT ( 'NONE',  ( 0.0000000000000000000, -2.278794624291728000E-017, 0.09434974129879830600 ) ) ;
#7 = CARTESIAN_POINT ( 'NONE',  ( 0.0000000000000000000, 0.0000000000000000000, 3.653955260050422400 ) ) ;
#8 = VERTEX_POINT ( 'NONE', #269 ) ;
#9 = CARTESIAN_POINT ( 'NONE',  ( 0.0000000000000000000, 0.0000000000000000000, 3.653955260050422400 ) ) ;
#10 = DATE_AND_TIME ( #274, #18 ) ;
#11 = CLOSED_SHELL ( 'NONE', ( #161, #290, #182, #82, #165, #187, #258, #79, #133, #254 ) ) ;
#12 = VERTEX_POINT ( 'NONE', #120 ) ;
#13 = COORDINATED_UNIVERSAL_TIME_OFFSET ( 5, 0, .BEHIND. ) ;
#14 = CC_DESIGN_PERSON_AND_ORGANIZATION_ASSIGNMENT ( #225, #115, ( #292 ) ) ;
#15 = CARTESIAN_POINT ( 'NONE',  ( 0.0000000000000000000, 0.0000000000000000000, 3.653955260050422400 ) ) ;
#16 = FACE_OUTER_BOUND ( 'NONE', #150, .T. ) ;
#17 = CIRCLE ( 'NONE', #249, 3.762401574803149200 ) ;
#18 = LOCAL_TIME ( 14, 9, 39.00000000000000000, #55 ) ;
#19 = LINE ( 'NONE', #286, #46 ) ;
#20 = APPROVAL_ROLE ( '' ) ;
#21 = VERTEX_POINT ( 'NONE', #72 ) ;
#22 = PRODUCT_DEFINITION_SHAPE ( 'NONE', 'NONE',  #33 ) ;
#23 = CARTESIAN_POINT ( 'NONE',  ( 0.0000000000000000000, 6.896862248478963400E-016, -0.1006456786930145200 ) ) ;
#24 = DATE_TIME_ROLE ( 'creation_date' ) ;
#25 = VERTEX_POINT ( 'NONE', #244 ) ;
#26 = AXIS2_PLACEMENT_3D ( 'NONE', #92, #321, #298 ) ;
#27 = PERSON_AND_ORGANIZATION ( #271, #81 ) ;
#28 = EDGE_CURVE ( 'NONE', #224, #25, #287, .T. ) ;
#30 = ORIENTED_EDGE ( 'NONE', *, *, #54, .F. ) ;
#29 = DIRECTION ( 'NONE',  ( 0.0000000000000000000, -1.000000000000000000, -1.452183101325219300E-016 ) ) ;
#31 = EDGE_CURVE ( 'NONE', #192, #25, #116, .T. ) ;
#32 = ORIENTED_EDGE ( 'NONE', *, *, #266, .F. ) ;
#33 = PRODUCT_DEFINITION ( 'UNKNOWN', '', #121, #169 ) ;
#34 = DIRECTION ( 'NONE',  ( 0.0000000000000000000, 1.836909530733552800E-016, -1.000000000000000000 ) ) ;
#35 = DIRECTION ( 'NONE',  ( 1.000000000000000000, -1.224646799147353200E-016, -2.249565377136128300E-032 ) ) ;
#36 = ORIENTED_EDGE ( 'NONE', *, *, #266, .T. ) ;
#37 = ORIENTED_EDGE ( 'NONE', *, *, #151, .F. ) ;
#38 = CYLINDRICAL_SURFACE ( 'NONE', #155, 0.2500000000000000600 ) ;
#39 = APPLICATION_CONTEXT ( 'configuration controlled 3d designs of mechanical parts and assemblies' ) ;
#40 = DIRECTION ( 'NONE',  ( 0.0000000000000000000, -0.6832104650311443500, 0.7302215146597143000 ) ) ;
#41 = CALENDAR_DATE ( 2018, 1, 6 ) ;
#42 = CALENDAR_DATE ( 2018, 1, 6 ) ;
#43 = DIRECTION ( 'NONE',  ( -0.0000000000000000000, -1.836909530733566100E-016, 1.000000000000000000 ) ) ;
#44 = AXIS2_PLACEMENT_3D ( 'NONE', #302, #284, #58 ) ;
#45 = DIRECTION ( 'NONE',  ( -1.000000000000000000, 1.224646799147353200E-016, 2.249565377136128300E-032 ) ) ;
#46 = VECTOR ( 'NONE', #144, 39.37007874015748100 ) ;
#47 = CALENDAR_DATE ( 2018, 1, 6 ) ;
#48 = APPROVAL ( #318, 'UNSPECIFIED' ) ;
#49 = SPHERICAL_SURFACE ( 'NONE', #114, 3.762401574803149200 ) ;
#50 = DIRECTION ( 'NONE',  ( 1.000000000000000000, 0.0000000000000000000, 0.0000000000000000000 ) ) ;
#51 = ORIENTED_EDGE ( 'NONE', *, *, #241, .F. ) ;
#52 = AXIS2_PLACEMENT_3D ( 'NONE', #170, #45, #276 ) ;
#53 = CARTESIAN_POINT ( 'NONE',  ( 0.0000000000000000000, -2.278794624291728000E-017, 0.09434974129879830600 ) ) ;
#54 = EDGE_CURVE ( 'NONE', #280, #12, #234, .T. ) ;
#55 = COORDINATED_UNIVERSAL_TIME_OFFSET ( 5, 0, .BEHIND. ) ;
#56 = CARTESIAN_POINT ( 'NONE',  ( 0.0000000000000000000, 0.0000000000000000000, 0.2655694332787694200 ) ) ;
#57 = PERSON_AND_ORGANIZATION ( #271, #81 ) ;
#58 = DIRECTION ( 'NONE',  ( 0.0000000000000000000, -1.000000000000000000, -2.048885995248196900E-016 ) ) ;
#59 = CIRCLE ( 'NONE', #297, 0.2500000000000000000 ) ;
#60 = CARTESIAN_POINT ( 'NONE',  ( 0.0000000000000000000, 0.2499999999999999700, 0.09434974129879834800 ) ) ;
#61 = CARTESIAN_POINT ( 'NONE',  ( 0.0000000000000000000, -2.278794624291728000E-017, 0.09434974129879830600 ) ) ;
#62 = VECTOR ( 'NONE', #229, 39.37007874015748100 ) ;
#63 = CARTESIAN_POINT ( 'NONE',  ( 0.0000000000000000000, 1.149006902909648400E-017, -0.09225724559143201600 ) ) ;
#64 = FACE_OUTER_BOUND ( 'NONE', #129, .T. ) ;
#65 = VECTOR ( 'NONE', #268, 39.37007874015748100 ) ;
#66 = CARTESIAN_POINT ( 'NONE',  ( 0.0000000000000000000, 0.0000000000000000000, 0.2655694332787694200 ) ) ;
#67 = CC_DESIGN_APPROVAL ( #48, ( #33 ) ) ;
#68 = DIRECTION ( 'NONE',  ( 0.0000000000000000000, 1.000000000000000000, 2.312964634635741500E-016 ) ) ;
#69 = APPROVAL_ROLE ( '' ) ;
#70 = MANIFOLD_SOLID_BREP ( '20181-001-1-solid1', #11 ) ;
#71 = LOCAL_TIME ( 14, 9, 39.00000000000000000, #102 ) ;
#72 = CARTESIAN_POINT ( 'NONE',  ( 0.0000000000000000000, 4.607384788358065200E-016, -0.1084463147527267400 ) ) ;
#73 = FACE_OUTER_BOUND ( 'NONE', #231, .T. ) ;
#74 = CONICAL_SURFACE ( 'NONE', #126, 0.2500000000000000000, 0.7853981633974545000 ) ;
#75 = UNCERTAINTY_MEASURE_WITH_UNIT (LENGTH_MEASURE( 1.000000000000000100E-005 ), #154, 'distance_accuracy_value', 'NONE');
#76 = VECTOR ( 'NONE', #40, 39.37007874015748900 ) ;
#77 = ORIENTED_EDGE ( 'NONE', *, *, #146, .F. ) ;
#78 = FACE_OUTER_BOUND ( 'NONE', #105, .T. ) ;
#79 = ADVANCED_FACE ( 'NONE', ( #184 ), #122, .T. ) ;
#80 = APPLICATION_PROTOCOL_DEFINITION ( 'international standard', 'config_control_design', 1994, #112 ) ;
#81 = ORGANIZATION ( 'UNSPECIFIED', 'UNSPECIFIED', '' ) ;
#82 = ADVANCED_FACE ( 'NONE', ( #199 ), #49, .T. ) ;
#83 = SPHERICAL_SURFACE ( 'NONE', #147, 0.2952755905511813000 ) ;
#84 = ORIENTED_EDGE ( 'NONE', *, *, #142, .F. ) ;
#85 = APPROVAL_ROLE ( '' ) ;
#86 = AXIS2_PLACEMENT_3D ( 'NONE', #312, #111, #117 ) ;
#87 = CC_DESIGN_PERSON_AND_ORGANIZATION_ASSIGNMENT ( #160, #238, ( #33 ) ) ;
#88 = VECTOR ( 'NONE', #158, 39.37007874015748900 ) ;
#89 = DIRECTION ( 'NONE',  ( 0.0000000000000000000, -1.000000000000000000, -2.048885995248196900E-016 ) ) ;
#90 = DIRECTION ( 'NONE',  ( -1.000000000000000000, 0.0000000000000000000, -0.0000000000000000000 ) ) ;
#91 = EDGE_CURVE ( 'NONE', #319, #12, #300, .T. ) ;
#92 = CARTESIAN_POINT ( 'NONE',  ( 0.0000000000000000000, -2.278794624291728000E-017, 0.09434974129879830600 ) ) ;
#93 = ORIENTED_EDGE ( 'NONE', *, *, #311, .T. ) ;
#94 = CARTESIAN_POINT ( 'NONE',  ( 0.0000000000000000000, 0.0000000000000000000, -0.02970615727241203400 ) ) ;
#95 = ORIENTED_EDGE ( 'NONE', *, *, #283, .F. ) ;
#96 = CARTESIAN_POINT ( 'NONE',  ( 0.0000000000000000000, -2.381069520796285800E-017, 0.09991751122940091500 ) ) ;
#97 = EDGE_CURVE ( 'NONE', #319, #8, #320, .T. ) ;
#98 = AXIS2_PLACEMENT_3D ( 'NONE', #23, #34, #167 ) ;
#99 = DIRECTION ( 'NONE',  ( 0.0000000000000000000, -1.000000000000000000, -1.452183101325219300E-016 ) ) ;
#100 = DATE_AND_TIME ( #42, #310 ) ;
#101 = EDGE_CURVE ( 'NONE', #21, #319, #17, .T. ) ;
#102 = COORDINATED_UNIVERSAL_TIME_OFFSET ( 5, 0, .BEHIND. ) ;
#103 = CIRCLE ( 'NONE', #281, 0.2421516071970490600 ) ;
#104 = CC_DESIGN_DATE_AND_TIME_ASSIGNMENT ( #317, #24, ( #33 ) ) ;
#105 = EDGE_LOOP ( 'NONE', ( #156, #93, #291, #108 ) ) ;
#106 = DIRECTION ( 'NONE',  ( 0.0000000000000000000, 1.000000000000000000, 2.048885995248197400E-016 ) ) ;
#107 = ORIENTED_EDGE ( 'NONE', *, *, #311, .F. ) ;
#108 = ORIENTED_EDGE ( 'NONE', *, *, #259, .F. ) ;
#109 = CARTESIAN_POINT ( 'NONE',  ( 0.0000000000000000000, -0.2421516071970517000, -0.1006456786930144000 ) ) ;
#110 = LINE ( 'NONE', #264, #65 ) ;
#111 = DIRECTION ( 'NONE',  ( -0.0000000000000000000, -1.836909530733566100E-016, 1.000000000000000000 ) ) ;
#112 = APPLICATION_CONTEXT ( 'configuration controlled 3d designs of mechanical parts and assemblies' ) ;
#113 = DIRECTION ( 'NONE',  ( 1.224646799147353000E-016, 1.000000000000000000, 0.0000000000000000000 ) ) ;
#114 = AXIS2_PLACEMENT_3D ( 'NONE', #15, #313, #29 ) ;
#115 = PERSON_AND_ORGANIZATION_ROLE ( 'design_owner' ) ;
#116 = CIRCLE ( 'NONE', #226, 0.2952755905511813000 ) ;
#117 = DIRECTION ( 'NONE',  ( 0.0000000000000000000, -1.000000000000000000, -2.095556296592406600E-016 ) ) ;
#118 = ORIENTED_EDGE ( 'NONE', *, *, #97, .T. ) ;
#119 = LINE ( 'NONE', #60, #132 ) ;
#120 = CARTESIAN_POINT ( 'NONE',  ( 0.0000000000000000000, -0.2500000000000000600, -0.09225724559143207200 ) ) ;
#121 = PRODUCT_DEFINITION_FORMATION_WITH_SPECIFIED_SOURCE ( 'ANY', '', #292, .NOT_KNOWN. ) ;
#122 = CYLINDRICAL_SURFACE ( 'NONE', #273, 0.2500000000000000600 ) ;
#123 = ORIENTED_EDGE ( 'NONE', *, *, #142, .T. ) ;
#124 = FACE_OUTER_BOUND ( 'NONE', #306, .T. ) ;
#125 = CARTESIAN_POINT ( 'NONE',  ( 0.0000000000000000000, -0.2500000000000000600, -0.02970615727241207900 ) ) ;
#126 = AXIS2_PLACEMENT_3D ( 'NONE', #61, #314, #106 ) ;
#127 = APPROVAL_STATUS ( 'not_yet_approved' ) ;
#128 = ORIENTED_EDGE ( 'NONE', *, *, #97, .F. ) ;
#129 = EDGE_LOOP ( 'NONE', ( #84, #140, #248 ) ) ;
#130 = ORIENTED_EDGE ( 'NONE', *, *, #279, .F. ) ;
#131 = CARTESIAN_POINT ( 'NONE',  ( 0.0000000000000000000, 6.896862248478963400E-016, -0.1006456786930145200 ) ) ;
#132 = VECTOR ( 'NONE', #136, 39.37007874015748100 ) ;
#133 = ADVANCED_FACE ( 'NONE', ( #222 ), #282, .T. ) ;
#134 = ORIENTED_EDGE ( 'NONE', *, *, #101, .F. ) ;
#135 = APPROVAL ( #267, 'UNSPECIFIED' ) ;
#136 = DIRECTION ( 'NONE',  ( 0.0000000000000000000, 0.7071067811865520100, -0.7071067811865430200 ) ) ;
#137 = ORIENTED_EDGE ( 'NONE', *, *, #200, .T. ) ;
#138 = AXIS2_PLACEMENT_3D ( 'NONE', #7, #35, #113 ) ;
#139 = DIRECTION ( 'NONE',  ( -1.000000000000000000, 0.0000000000000000000, 0.0000000000000000000 ) ) ;
#140 = ORIENTED_EDGE ( 'NONE', *, *, #31, .T. ) ;
#141 = PERSON_AND_ORGANIZATION_ROLE ( 'creator' ) ;
#142 = EDGE_CURVE ( 'NONE', #192, #224, #322, .T. ) ;
#143 = DIRECTION ( 'NONE',  ( -0.0000000000000000000, -1.836909530733552800E-016, 1.000000000000000000 ) ) ;
#144 = DIRECTION ( 'NONE',  ( -0.0000000000000000000, -1.836909530733566100E-016, 1.000000000000000000 ) ) ;
#145 = LENGTH_MEASURE_WITH_UNIT ( LENGTH_MEASURE( 0.02539999999999999900 ), #257 );
#146 = EDGE_CURVE ( 'NONE', #8, #319, #103, .T. ) ;
#147 = AXIS2_PLACEMENT_3D ( 'NONE', #245, #139, #262 ) ;
#148 = DIRECTION ( 'NONE',  ( -0.0000000000000000000, -1.836909530733566100E-016, 1.000000000000000000 ) ) ;
#149 = CC_DESIGN_APPROVAL ( #135, ( #121 ) ) ;
#150 = EDGE_LOOP ( 'NONE', ( #77, #36, #277, #208 ) ) ;
#151 = EDGE_CURVE ( 'NONE', #280, #152, #19, .T. ) ;
#152 = VERTEX_POINT ( 'NONE', #2 ) ;
#153 = PERSON_AND_ORGANIZATION_ROLE ( 'design_supplier' ) ;
#154 =( CONVERSION_BASED_UNIT ( 'INCH', #145 ) LENGTH_UNIT ( ) NAMED_UNIT ( #251 ) );
#155 = AXIS2_PLACEMENT_3D ( 'NONE', #206, #43, #265 ) ;
#156 = ORIENTED_EDGE ( 'NONE', *, *, #28, .F. ) ;
#157 = CIRCLE ( 'NONE', #86, 0.2444322300693973200 ) ;
#158 = DIRECTION ( 'NONE',  ( 8.659560562354985900E-017, -0.7071067811865516800, -0.7071067811865431300 ) ) ;
#159 = DIRECTION ( 'NONE',  ( 0.0000000000000000000, 1.836909530733566100E-016, -1.000000000000000000 ) ) ;
#160 = PERSON_AND_ORGANIZATION ( #271, #81 ) ;
#161 = ADVANCED_FACE ( 'NONE', ( #16 ), #203, .T. ) ;
#162 = APPROVAL_PERSON_ORGANIZATION ( #57, #252, #20 ) ;
#163 = DIRECTION ( 'NONE',  ( -0.0000000000000000000, -1.836909530733566100E-016, 1.000000000000000000 ) ) ;
#164 = VERTEX_POINT ( 'NONE', #250 ) ;
#165 = ADVANCED_FACE ( 'NONE', ( #124 ), #83, .F. ) ;
#166 = FACE_OUTER_BOUND ( 'NONE', #194, .T. ) ;
#167 = DIRECTION ( 'NONE',  ( 0.0000000000000000000, -1.000000000000000000, -2.115292583605414400E-016 ) ) ;
#168 = DIRECTION ( 'NONE',  ( 0.0000000000000000000, -1.000000000000000000, -2.095556296592406600E-016 ) ) ;
#169 = DESIGN_CONTEXT ( 'detailed design', #112, 'design' ) ;
#170 = CARTESIAN_POINT ( 'NONE',  ( 0.0000000000000000000, 0.0000000000000000000, 0.2655694332787694200 ) ) ;
#171 = CC_DESIGN_PERSON_AND_ORGANIZATION_ASSIGNMENT ( #212, #141, ( #121 ) ) ;
#172 = ORIENTED_EDGE ( 'NONE', *, *, #31, .F. ) ;
#173 = COORDINATED_UNIVERSAL_TIME_OFFSET ( 5, 0, .BEHIND. ) ;
#174 = EDGE_LOOP ( 'NONE', ( #107, #51, #213, #137 ) ) ;
#175 = CARTESIAN_POINT ( 'NONE',  ( 0.0000000000000000000, 0.0000000000000000000, 3.653955260050422400 ) ) ;
#176 = FACE_OUTER_BOUND ( 'NONE', #329, .T. ) ;
#177 = SPHERICAL_SURFACE ( 'NONE', #216, 3.762401574803149200 ) ;
#178 = ORIENTED_EDGE ( 'NONE', *, *, #101, .T. ) ;
#179 = CARTESIAN_POINT ( 'NONE',  ( 3.061616997868383000E-017, -0.2500000000000000600, 0.09434974129879825100 ) ) ;
#180 = DIRECTION ( 'NONE',  ( 0.0000000000000000000, 0.0000000000000000000, -1.000000000000000000 ) ) ;
#181 = LOCAL_TIME ( 14, 9, 39.00000000000000000, #13 ) ;
#182 = ADVANCED_FACE ( 'NONE', ( #73 ), #38, .T. ) ;
#183 = DIRECTION ( 'NONE',  ( 0.0000000000000000000, 0.0000000000000000000, 1.000000000000000000 ) ) ;
#184 = FACE_OUTER_BOUND ( 'NONE', #301, .T. ) ;
#185 = CC_DESIGN_PERSON_AND_ORGANIZATION_ASSIGNMENT ( #261, #153, ( #121 ) ) ;
#186 = CARTESIAN_POINT ( 'NONE',  ( 0.0000000000000000000, 0.0000000000000000000, 0.0000000000000000000 ) ) ;
#187 = ADVANCED_FACE ( 'NONE', ( #64 ), #223, .F. ) ;
#188 = EDGE_LOOP ( 'NONE', ( #134, #197, #275 ) ) ;
#189 = ADVANCED_BREP_SHAPE_REPRESENTATION ( '20181-E0W', ( #70, #327 ), #3 ) ;
#190 = DATE_AND_TIME ( #299, #210 ) ;
#191 = EDGE_CURVE ( 'NONE', #21, #8, #256, .T. ) ;
#192 = VERTEX_POINT ( 'NONE', #316 ) ;
#193 = CARTESIAN_POINT ( 'NONE',  ( 0.0000000000000000000, 1.149006902909648300E-017, -0.09225724559143200200 ) ) ;
#194 = EDGE_LOOP ( 'NONE', ( #227, #178, #118 ) ) ;
#195 = ORIENTED_EDGE ( 'NONE', *, *, #54, .T. ) ;
#196 = LINE ( 'NONE', #125, #62 ) ;
#197 = ORIENTED_EDGE ( 'NONE', *, *, #191, .T. ) ;
#198 = AXIS2_PLACEMENT_3D ( 'NONE', #330, #143, #243 ) ;
#199 = FACE_OUTER_BOUND ( 'NONE', #188, .T. ) ;
#200 = EDGE_CURVE ( 'NONE', #152, #164, #59, .T. ) ;
#201 = APPLICATION_PROTOCOL_DEFINITION ( 'international standard', 'config_control_design', 1994, #39 ) ;
#202 = PERSON_AND_ORGANIZATION ( #271, #81 ) ;
#203 = CONICAL_SURFACE ( 'NONE', #270, 0.2500000000000000600, 0.7521502062232585700 ) ;
#204 = SECURITY_CLASSIFICATION ( '', '', #5 ) ;
#205 = AXIS2_PLACEMENT_3D ( 'NONE', #96, #242, #168 ) ;
#206 = CARTESIAN_POINT ( 'NONE',  ( 0.0000000000000000000, 0.0000000000000000000, -0.02970615727241203400 ) ) ;
#207 = AXIS2_PLACEMENT_3D ( 'NONE', #66, #253, #68 ) ;
#208 = ORIENTED_EDGE ( 'NONE', *, *, #91, .F. ) ;
#209 = DIRECTION ( 'NONE',  ( 0.0000000000000000000, 1.836909530733552800E-016, -1.000000000000000000 ) ) ;
#210 = LOCAL_TIME ( 14, 9, 39.00000000000000000, #173 ) ;
#211 = DIRECTION ( 'NONE',  ( 0.0000000000000000000, 1.000000000000000000, 2.048885995248197400E-016 ) ) ;
#212 = PERSON_AND_ORGANIZATION ( #271, #81 ) ;
#213 = ORIENTED_EDGE ( 'NONE', *, *, #259, .T. ) ;
#214 = LINE ( 'NONE', #179, #88 ) ;
#215 = DIRECTION ( 'NONE',  ( 0.0000000000000000000, -1.000000000000000000, -1.878145495644180300E-016 ) ) ;
#216 = AXIS2_PLACEMENT_3D ( 'NONE', #9, #247, #99 ) ;
#217 = CC_DESIGN_PERSON_AND_ORGANIZATION_ASSIGNMENT ( #220, #1, ( #204 ) ) ;
#218 = ORIENTED_EDGE ( 'NONE', *, *, #221, .T. ) ;
#219 = CARTESIAN_POINT ( 'NONE',  ( 3.061616997868383600E-017, 0.2500000000000000600, -0.09225724559143197400 ) ) ;
#220 = PERSON_AND_ORGANIZATION ( #271, #81 ) ;
#221 = EDGE_CURVE ( 'NONE', #12, #280, #304, .T. ) ;
#222 = FACE_OUTER_BOUND ( 'NONE', #174, .T. ) ;
#223 = SPHERICAL_SURFACE ( 'NONE', #207, 0.2952755905511813000 ) ;
#224 = VERTEX_POINT ( 'NONE', #323 ) ;
#225 = PERSON_AND_ORGANIZATION ( #271, #81 ) ;
#226 = AXIS2_PLACEMENT_3D ( 'NONE', #56, #228, #180 ) ;
#227 = ORIENTED_EDGE ( 'NONE', *, *, #191, .F. ) ;
#228 = DIRECTION ( 'NONE',  ( 1.000000000000000000, 0.0000000000000000000, 0.0000000000000000000 ) ) ;
#229 = DIRECTION ( 'NONE',  ( -0.0000000000000000000, -1.836909530733566100E-016, 1.000000000000000000 ) ) ;
#230 = DATE_TIME_ROLE ( 'classification_date' ) ;
#231 = EDGE_LOOP ( 'NONE', ( #218, #296, #130, #95 ) ) ;
#232 = SHAPE_DEFINITION_REPRESENTATION ( #22, #189 ) ;
#233 = CC_DESIGN_DATE_AND_TIME_ASSIGNMENT ( #190, #230, ( #204 ) ) ;
#234 = CIRCLE ( 'NONE', #198, 0.2500000000000000600 ) ;
#235 = DIRECTION ( 'NONE',  ( 0.0000000000000000000, -1.000000000000000000, -2.048885995248196900E-016 ) ) ;
#236 = ORIENTED_EDGE ( 'NONE', *, *, #28, .T. ) ;
#237 = MECHANICAL_CONTEXT ( 'NONE', #39, 'mechanical' ) ;
#238 = PERSON_AND_ORGANIZATION_ROLE ( 'creator' ) ;
#239 = APPROVAL_PERSON_ORGANIZATION ( #202, #48, #85 ) ;
#240 = CONICAL_SURFACE ( 'NONE', #44, 0.2500000000000000600, 0.7521502062232585700 ) ;
#241 = EDGE_CURVE ( 'NONE', #25, #224, #157, .T. ) ;
#242 = DIRECTION ( 'NONE',  ( -0.0000000000000000000, -1.836909530733566100E-016, 1.000000000000000000 ) ) ;
#243 = DIRECTION ( 'NONE',  ( 0.0000000000000000000, -1.000000000000000000, -2.048885995248196900E-016 ) ) ;
#244 = CARTESIAN_POINT ( 'NONE',  ( 0.0000000000000000000, 0.2444322300693973800, 0.09991751122940095700 ) ) ;
#245 = CARTESIAN_POINT ( 'NONE',  ( 0.0000000000000000000, 0.0000000000000000000, 0.2655694332787694200 ) ) ;
#246 = CIRCLE ( 'NONE', #26, 0.2500000000000000000 ) ;
#247 = DIRECTION ( 'NONE',  ( 1.000000000000000000, 0.0000000000000000000, 0.0000000000000000000 ) ) ;
#248 = ORIENTED_EDGE ( 'NONE', *, *, #241, .T. ) ;
#249 = AXIS2_PLACEMENT_3D ( 'NONE', #175, #90, #183 ) ;
#250 = CARTESIAN_POINT ( 'NONE',  ( 0.0000000000000000000, -0.2500000000000000600, 0.09434974129879825100 ) ) ;
#251 = DIMENSIONAL_EXPONENTS ( 1.000000000000000000, 0.0000000000000000000, 0.0000000000000000000, 0.0000000000000000000, 0.0000000000000000000, 0.0000000000000000000, 0.0000000000000000000 ) ;
#252 = APPROVAL ( #127, 'UNSPECIFIED' ) ;
#253 = DIRECTION ( 'NONE',  ( -1.000000000000000000, 0.0000000000000000000, 0.0000000000000000000 ) ) ;
#254 = ADVANCED_FACE ( 'NONE', ( #176 ), #240, .T. ) ;
#255 = COORDINATED_UNIVERSAL_TIME_OFFSET ( 5, 0, .BEHIND. ) ;
#256 = CIRCLE ( 'NONE', #138, 3.762401574803149200 ) ;
#257 =( LENGTH_UNIT ( ) NAMED_UNIT ( * ) SI_UNIT ( $, .METRE. ) );
#258 = ADVANCED_FACE ( 'NONE', ( #166 ), #177, .T. ) ;
#259 = EDGE_CURVE ( 'NONE', #25, #152, #119, .T. ) ;
#260 = CARTESIAN_POINT ( 'NONE',  ( 0.0000000000000000000, -0.2500000000000000600, -0.09225724559143205800 ) ) ;
#261 = PERSON_AND_ORGANIZATION ( #271, #81 ) ;
#262 = DIRECTION ( 'NONE',  ( 0.0000000000000000000, 1.000000000000000000, 2.312964634635741500E-016 ) ) ;
#263 = DIRECTION ( 'NONE',  ( 0.0000000000000000000, -1.000000000000000000, -2.115292583605414400E-016 ) ) ;
#264 = CARTESIAN_POINT ( 'NONE',  ( 3.061616997868383600E-017, 0.2500000000000000600, -0.09225724559143196100 ) ) ;
#265 = DIRECTION ( 'NONE',  ( 0.0000000000000000000, -1.000000000000000000, -1.878145495644180300E-016 ) ) ;
#266 = EDGE_CURVE ( 'NONE', #8, #280, #110, .T. ) ;
#267 = APPROVAL_STATUS ( 'not_yet_approved' ) ;
#268 = DIRECTION ( 'NONE',  ( 8.366915091443654600E-017, 0.6832104650311441300, 0.7302215146597145200 ) ) ;
#269 = CARTESIAN_POINT ( 'NONE',  ( 2.965501906622573600E-017, 0.2421516071970530600, -0.1006456786930143600 ) ) ;
#270 = AXIS2_PLACEMENT_3D ( 'NONE', #193, #325, #89 ) ;
#271 = PERSON ( 'UNSPECIFIED', 'UNSPECIFIED', 'UNSPECIFIED', ('UNSPECIFIED'), ('UNSPECIFIED'), ('UNSPECIFIED') ) ;
#272 = CC_DESIGN_APPROVAL ( #252, ( #204 ) ) ;
#273 = AXIS2_PLACEMENT_3D ( 'NONE', #94, #148, #215 ) ;
#274 = CALENDAR_DATE ( 2018, 1, 6 ) ;
#275 = ORIENTED_EDGE ( 'NONE', *, *, #146, .T. ) ;
#276 = DIRECTION ( 'NONE',  ( -1.224646799147353500E-016, -1.000000000000000000, 0.0000000000000000000 ) ) ;
#277 = ORIENTED_EDGE ( 'NONE', *, *, #221, .F. ) ;
#278 = APPROVAL_DATE_TIME ( #100, #135 ) ;
#279 = EDGE_CURVE ( 'NONE', #164, #152, #246, .T. ) ;
#280 = VERTEX_POINT ( 'NONE', #219 ) ;
#281 = AXIS2_PLACEMENT_3D ( 'NONE', #131, #209, #263 ) ;
#282 = CONICAL_SURFACE ( 'NONE', #328, 0.2500000000000000000, 0.7853981633974545000 ) ;
#283 = EDGE_CURVE ( 'NONE', #12, #164, #196, .T. ) ;
#284 = DIRECTION ( 'NONE',  ( -0.0000000000000000000, -1.836909530733552800E-016, 1.000000000000000000 ) ) ;
#285 = APPROVAL_DATE_TIME ( #294, #48 ) ;
#286 = CARTESIAN_POINT ( 'NONE',  ( 3.061616997868383600E-017, 0.2500000000000000600, -0.02970615727241198600 ) ) ;
#287 = CIRCLE ( 'NONE', #205, 0.2444322300693973200 ) ;
#288 =( NAMED_UNIT ( * ) SI_UNIT ( $, .STERADIAN. ) SOLID_ANGLE_UNIT ( ) );
#289 =( NAMED_UNIT ( * ) PLANE_ANGLE_UNIT ( ) SI_UNIT ( $, .RADIAN. ) );
#290 = ADVANCED_FACE ( 'NONE', ( #78 ), #74, .T. ) ;
#291 = ORIENTED_EDGE ( 'NONE', *, *, #279, .T. ) ;
#292 = PRODUCT ( '20181-E0W', '20181-E0W', '', ( #237 ) ) ;
#293 = CC_DESIGN_SECURITY_CLASSIFICATION ( #204, ( #121 ) ) ;
#294 = DATE_AND_TIME ( #47, #181 ) ;
#295 = DIRECTION ( 'NONE',  ( 0.0000000000000000000, -1.000000000000000000, -2.048885995248197400E-016 ) ) ;
#296 = ORIENTED_EDGE ( 'NONE', *, *, #151, .T. ) ;
#297 = AXIS2_PLACEMENT_3D ( 'NONE', #53, #163, #295 ) ;
#298 = DIRECTION ( 'NONE',  ( 0.0000000000000000000, -1.000000000000000000, -2.048885995248197400E-016 ) ) ;
#299 = CALENDAR_DATE ( 2018, 1, 6 ) ;
#300 = LINE ( 'NONE', #260, #76 ) ;
#301 = EDGE_LOOP ( 'NONE', ( #37, #195, #308, #315 ) ) ;
#302 = CARTESIAN_POINT ( 'NONE',  ( 0.0000000000000000000, 1.149006902909648300E-017, -0.09225724559143200200 ) ) ;
#303 = AXIS2_PLACEMENT_3D ( 'NONE', #63, #324, #235 ) ;
#304 = CIRCLE ( 'NONE', #303, 0.2500000000000000600 ) ;
#305 = APPROVAL_DATE_TIME ( #10, #252 ) ;
#306 = EDGE_LOOP ( 'NONE', ( #172, #123, #236 ) ) ;
#307 = ORIENTED_EDGE ( 'NONE', *, *, #91, .T. ) ;
#308 = ORIENTED_EDGE ( 'NONE', *, *, #283, .T. ) ;
#309 = PRODUCT_RELATED_PRODUCT_CATEGORY ( 'detail', '', ( #292 ) ) ;
#310 = LOCAL_TIME ( 14, 9, 39.00000000000000000, #255 ) ;
#311 = EDGE_CURVE ( 'NONE', #224, #164, #214, .T. ) ;
#312 = CARTESIAN_POINT ( 'NONE',  ( 0.0000000000000000000, -2.381069520796285800E-017, 0.09991751122940091500 ) ) ;
#313 = DIRECTION ( 'NONE',  ( 1.000000000000000000, 0.0000000000000000000, 0.0000000000000000000 ) ) ;
#314 = DIRECTION ( 'NONE',  ( 0.0000000000000000000, 1.836909530733566100E-016, -1.000000000000000000 ) ) ;
#315 = ORIENTED_EDGE ( 'NONE', *, *, #200, .F. ) ;
#316 = CARTESIAN_POINT ( 'NONE',  ( 0.0000000000000000000, 7.231986998938713000E-017, -0.02970615727241191300 ) ) ;
#317 = DATE_AND_TIME ( #41, #71 ) ;
#318 = APPROVAL_STATUS ( 'not_yet_approved' ) ;
#319 = VERTEX_POINT ( 'NONE', #109 ) ;
#320 = CIRCLE ( 'NONE', #98, 0.2421516071970490600 ) ;
#321 = DIRECTION ( 'NONE',  ( -0.0000000000000000000, -1.836909530733566100E-016, 1.000000000000000000 ) ) ;
#322 = CIRCLE ( 'NONE', #52, 0.2952755905511813000 ) ;
#323 = CARTESIAN_POINT ( 'NONE',  ( -2.993431481629369000E-017, -0.2444322300693973500, 0.09991751122940087400 ) ) ;
#324 = DIRECTION ( 'NONE',  ( -0.0000000000000000000, -1.836909530733552800E-016, 1.000000000000000000 ) ) ;
#325 = DIRECTION ( 'NONE',  ( -0.0000000000000000000, -1.836909530733552800E-016, 1.000000000000000000 ) ) ;
#326 = APPROVAL_PERSON_ORGANIZATION ( #27, #135, #69 ) ;
#327 = AXIS2_PLACEMENT_3D ( 'NONE', #186, #4, #50 ) ;
#328 = AXIS2_PLACEMENT_3D ( 'NONE', #6, #159, #211 ) ;
#329 = EDGE_LOOP ( 'NONE', ( #32, #128, #307, #30 ) ) ;
#330 = CARTESIAN_POINT ( 'NONE',  ( 0.0000000000000000000, 1.149006902909648400E-017, -0.09225724559143201600 ) ) ;
ENDSEC;
END-ISO-10303-21;
