ISO-10303-21;
HEADER;
FILE_DESCRIPTION (( 'STEP AP203' ),
    '1' );
FILE_NAME ('Web Model 43847_46079.step',
    '2018-03-12T20:48:53',
    ( '' ),
    ( '' ),
    'SwSTEP 2.0',
    'SolidWorks 2016',
    '' );
FILE_SCHEMA (( 'CONFIG_CONTROL_DESIGN' ));
ENDSEC;

DATA;
#1 = CARTESIAN_POINT ( 'NONE',  ( 3.000000000000000000, -6.350000000000000500, -6.350000000000002300 ) ) ;
#2 = ORIENTED_EDGE ( 'NONE', *, *, #149, .F. ) ;
#3 = PERSON_AND_ORGANIZATION_ROLE ( 'classification_officer' ) ;
#4 = APPROVAL_STATUS ( 'not_yet_approved' ) ;
#5 = APPROVAL_ROLE ( '' ) ;
#6 = FACE_OUTER_BOUND ( 'NONE', #134, .T. ) ;
#7 = DATE_AND_TIME ( #194, #69 ) ;
#8 = ORIENTED_EDGE ( 'NONE', *, *, #98, .F. ) ;
#9 = APPROVAL_PERSON_ORGANIZATION ( #118, #86, #111 ) ;
#10 = LINE ( 'NONE', #225, #33 ) ;
#11 = VERTEX_POINT ( 'NONE', #227 ) ;
#12 = CARTESIAN_POINT ( 'NONE',  ( 3.000000000000000000, 6.349999999999998800, -6.349999999999999600 ) ) ;
#13 = CC_DESIGN_PERSON_AND_ORGANIZATION_ASSIGNMENT ( #34, #218, ( #127 ) ) ;
#14 = CARTESIAN_POINT ( 'NONE',  ( 3.000000000000000000, -6.350000000000000500, 6.350000000000002300 ) ) ;
#15 = EDGE_LOOP ( 'NONE', ( #135, #112, #73, #77 ) ) ;
#16 = EDGE_CURVE ( 'NONE', #129, #55, #161, .T. ) ;
#17 = DIRECTION ( 'NONE',  ( 0.0000000000000000000, 0.0000000000000000000, 1.000000000000000000 ) ) ;
#18 = CARTESIAN_POINT ( 'NONE',  ( 3.000000000000000000, 6.349999999999998800, -6.349999999999999600 ) ) ;
#19 = EDGE_LOOP ( 'NONE', ( #188, #182, #157, #176 ) ) ;
#20 = ORIENTED_EDGE ( 'NONE', *, *, #98, .T. ) ;
#21 = LINE ( 'NONE', #199, #51 ) ;
#22 = CC_DESIGN_DATE_AND_TIME_ASSIGNMENT ( #97, #144, ( #124 ) ) ;
#23 = APPROVAL_STATUS ( 'not_yet_approved' ) ;
#24 = CC_DESIGN_PERSON_AND_ORGANIZATION_ASSIGNMENT ( #114, #37, ( #124 ) ) ;
#25 = ORIENTED_EDGE ( 'NONE', *, *, #121, .T. ) ;
#26 = LINE ( 'NONE', #237, #61 ) ;
#27 = DIRECTION ( 'NONE',  ( 0.0000000000000000000, -2.048885995248197400E-016, 1.000000000000000000 ) ) ;
#28 = VERTEX_POINT ( 'NONE', #41 ) ;
#29 = LINE ( 'NONE', #115, #56 ) ;
#30 = DIRECTION ( 'NONE',  ( -0.0000000000000000000, -0.0000000000000000000, 1.000000000000000000 ) ) ;
#31 = PLANE ( 'NONE',  #74 ) ;
#32 = CC_DESIGN_SECURITY_CLASSIFICATION ( #102, ( #127 ) ) ;
#33 = VECTOR ( 'NONE', #152, 1000.000000000000000 ) ;
#34 = PERSON_AND_ORGANIZATION ( #84, #169 ) ;
#35 = DIRECTION ( 'NONE',  ( 0.0000000000000000000, -0.0000000000000000000, -1.000000000000000000 ) ) ;
#36 = LOCAL_TIME ( 16, 48, 53.00000000000000000, #44 ) ;
#37 = PERSON_AND_ORGANIZATION_ROLE ( 'creator' ) ;
#38 = DATE_TIME_ROLE ( 'classification_date' ) ;
#39 = LINE ( 'NONE', #209, #79 ) ;
#40 = CARTESIAN_POINT ( 'NONE',  ( 3.000000000000000000, 6.349999999999998800, -6.349999999999999600 ) ) ;
#41 = CARTESIAN_POINT ( 'NONE',  ( -3.000000000000000000, 6.349999999999998800, 6.349999999999999600 ) ) ;
#42 = PRODUCT_DEFINITION_SHAPE ( 'NONE', 'NONE',  #124 ) ;
#43 = CARTESIAN_POINT ( 'NONE',  ( -3.000000000000000000, 6.349999999999998800, -6.349999999999999600 ) ) ;
#44 = COORDINATED_UNIVERSAL_TIME_OFFSET ( 5, 0, .BEHIND. ) ;
#45 = LINE ( 'NONE', #103, #235 ) ;
#46 = DATE_AND_TIME ( #92, #143 ) ;
#47 = ORIENTED_EDGE ( 'NONE', *, *, #202, .T. ) ;
#48 = CARTESIAN_POINT ( 'NONE',  ( 3.000000000000000000, -6.350000000000000500, 6.350000000000002300 ) ) ;
#49 = DIRECTION ( 'NONE',  ( -1.000000000000000000, -0.0000000000000000000, -0.0000000000000000000 ) ) ;
#50 = DIRECTION ( 'NONE',  ( -0.0000000000000000000, 1.000000000000000000, 0.0000000000000000000 ) ) ;
#51 = VECTOR ( 'NONE', #215, 1000.000000000000000 ) ;
#52 = PERSON_AND_ORGANIZATION ( #84, #169 ) ;
#53 = VECTOR ( 'NONE', #49, 1000.000000000000000 ) ;
#54 = DIRECTION ( 'NONE',  ( -0.0000000000000000000, 1.000000000000000000, 2.048885995248197400E-016 ) ) ;
#55 = VERTEX_POINT ( 'NONE', #43 ) ;
#56 = VECTOR ( 'NONE', #95, 1000.000000000000000 ) ;
#57 = CARTESIAN_POINT ( 'NONE',  ( -3.000000000000000000, 6.349999999999998800, -6.349999999999999600 ) ) ;
#58 = ORIENTED_EDGE ( 'NONE', *, *, #213, .F. ) ;
#59 = FACE_OUTER_BOUND ( 'NONE', #15, .T. ) ;
#60 = AXIS2_PLACEMENT_3D ( 'NONE', #14, #50, #104 ) ;
#61 = VECTOR ( 'NONE', #204, 1000.000000000000000 ) ;
#62 = DIRECTION ( 'NONE',  ( 1.000000000000000000, 0.0000000000000000000, 0.0000000000000000000 ) ) ;
#63 = CC_DESIGN_PERSON_AND_ORGANIZATION_ASSIGNMENT ( #52, #130, ( #127 ) ) ;
#64 =( LENGTH_UNIT ( ) NAMED_UNIT ( * ) SI_UNIT ( .MILLI., .METRE. ) );
#65 = DIRECTION ( 'NONE',  ( 0.0000000000000000000, -2.048885995248197400E-016, -1.000000000000000000 ) ) ;
#66 = AXIS2_PLACEMENT_3D ( 'NONE', #174, #136, #75 ) ;
#67 = DIRECTION ( 'NONE',  ( 0.0000000000000000000, -1.000000000000000000, 0.0000000000000000000 ) ) ;
#68 = CARTESIAN_POINT ( 'NONE',  ( 3.000000000000000000, 6.349999999999998800, 6.349999999999999600 ) ) ;
#69 = LOCAL_TIME ( 16, 48, 53.00000000000000000, #205 ) ;
#70 = ORIENTED_EDGE ( 'NONE', *, *, #178, .F. ) ;
#71 = MECHANICAL_CONTEXT ( 'NONE', #89, 'mechanical' ) ;
#72 = APPROVAL_PERSON_ORGANIZATION ( #177, #181, #90 ) ;
#73 = ORIENTED_EDGE ( 'NONE', *, *, #224, .T. ) ;
#74 = AXIS2_PLACEMENT_3D ( 'NONE', #68, #65, #163 ) ;
#75 = DIRECTION ( 'NONE',  ( 0.0000000000000000000, 0.0000000000000000000, -1.000000000000000000 ) ) ;
#76 = PLANE ( 'NONE',  #66 ) ;
#77 = ORIENTED_EDGE ( 'NONE', *, *, #178, .T. ) ;
#78 = DATE_AND_TIME ( #229, #36 ) ;
#79 = VECTOR ( 'NONE', #148, 1000.000000000000000 ) ;
#80 = CC_DESIGN_PERSON_AND_ORGANIZATION_ASSIGNMENT ( #151, #187, ( #139 ) ) ;
#81 = FACE_OUTER_BOUND ( 'NONE', #193, .T. ) ;
#82 = LINE ( 'NONE', #153, #146 ) ;
#83 = AXIS2_PLACEMENT_3D ( 'NONE', #155, #27, #101 ) ;
#84 = PERSON ( 'UNSPECIFIED', 'UNSPECIFIED', 'UNSPECIFIED', ('UNSPECIFIED'), ('UNSPECIFIED'), ('UNSPECIFIED') ) ;
#85 = DIRECTION ( 'NONE',  ( 0.0000000000000000000, 0.0000000000000000000, -1.000000000000000000 ) ) ;
#86 = APPROVAL ( #4, 'UNSPECIFIED' ) ;
#87 = CLOSED_SHELL ( 'NONE', ( #231, #180, #141, #212, #91, #147 ) ) ;
#88 = CC_DESIGN_APPROVAL ( #181, ( #102 ) ) ;
#89 = APPLICATION_CONTEXT ( 'configuration controlled 3d designs of mechanical parts and assemblies' ) ;
#90 = APPROVAL_ROLE ( '' ) ;
#91 = ADVANCED_FACE ( 'NONE', ( #59 ), #76, .T. ) ;
#93 = CC_DESIGN_PERSON_AND_ORGANIZATION_ASSIGNMENT ( #133, #3, ( #102 ) ) ;
#92 = CALENDAR_DATE ( 2018, 12, 3 ) ;
#94 = ORIENTED_EDGE ( 'NONE', *, *, #109, .F. ) ;
#95 = DIRECTION ( 'NONE',  ( 0.0000000000000000000, 0.0000000000000000000, -1.000000000000000000 ) ) ;
#96 = AXIS2_PLACEMENT_3D ( 'NONE', #154, #62, #159 ) ;
#97 = DATE_AND_TIME ( #184, #198 ) ;
#98 = EDGE_CURVE ( 'NONE', #207, #129, #29, .T. ) ;
#99 = LINE ( 'NONE', #40, #105 ) ;
#100 = AXIS2_PLACEMENT_3D ( 'NONE', #201, #67, #35 ) ;
#101 = DIRECTION ( 'NONE',  ( 0.0000000000000000000, -1.000000000000000000, -2.048885995248197400E-016 ) ) ;
#102 = SECURITY_CLASSIFICATION ( '', '', #171 ) ;
#103 = CARTESIAN_POINT ( 'NONE',  ( 3.000000000000000000, 6.349999999999998800, 6.349999999999999600 ) ) ;
#104 = DIRECTION ( 'NONE',  ( 0.0000000000000000000, -0.0000000000000000000, 1.000000000000000000 ) ) ;
#105 = VECTOR ( 'NONE', #179, 1000.000000000000000 ) ;
#106 = CC_DESIGN_APPROVAL ( #86, ( #124 ) ) ;
#107 = DESIGN_CONTEXT ( 'detailed design', #145, 'design' ) ;
#108 = PERSON_AND_ORGANIZATION ( #84, #169 ) ;
#109 = EDGE_CURVE ( 'NONE', #11, #166, #10, .T. ) ;
#110 = PLANE ( 'NONE',  #100 ) ;
#111 = APPROVAL_ROLE ( '' ) ;
#112 = ORIENTED_EDGE ( 'NONE', *, *, #149, .T. ) ;
#113 = CARTESIAN_POINT ( 'NONE',  ( -3.000000000000000000, -6.350000000000000500, -6.350000000000002300 ) ) ;
#114 = PERSON_AND_ORGANIZATION ( #84, #169 ) ;
#115 = CARTESIAN_POINT ( 'NONE',  ( -3.000000000000000000, -6.350000000000000500, 6.350000000000002300 ) ) ;
#116 = MANIFOLD_SOLID_BREP ( 'Boss-Extrude1', #87 ) ;
#117 = ORIENTED_EDGE ( 'NONE', *, *, #164, .T. ) ;
#118 = PERSON_AND_ORGANIZATION ( #84, #169 ) ;
#119 = APPROVAL_DATE_TIME ( #216, #181 ) ;
#120 = ORIENTED_EDGE ( 'NONE', *, *, #121, .F. ) ;
#121 = EDGE_CURVE ( 'NONE', #55, #28, #39, .T. ) ;
#122 = EDGE_LOOP ( 'NONE', ( #20, #195, #2, #117 ) ) ;
#123 = LINE ( 'NONE', #18, #170 ) ;
#124 = PRODUCT_DEFINITION ( 'UNKNOWN', '', #127, #107 ) ;
#125 = EDGE_CURVE ( 'NONE', #220, #129, #82, .T. ) ;
#126 = DIRECTION ( 'NONE',  ( 1.000000000000000000, 0.0000000000000000000, 0.0000000000000000000 ) ) ;
#127 = PRODUCT_DEFINITION_FORMATION_WITH_SPECIFIED_SOURCE ( 'ANY', '', #139, .NOT_KNOWN. ) ;
#128 = APPROVAL_DATE_TIME ( #7, #233 ) ;
#129 = VERTEX_POINT ( 'NONE', #113 ) ;
#130 = PERSON_AND_ORGANIZATION_ROLE ( 'creator' ) ;
#131 = FACE_OUTER_BOUND ( 'NONE', #19, .T. ) ;
#132 = EDGE_CURVE ( 'NONE', #150, #55, #99, .T. ) ;
#133 = PERSON_AND_ORGANIZATION ( #84, #169 ) ;
#134 = EDGE_LOOP ( 'NONE', ( #25, #219, #70, #208 ) ) ;
#135 = ORIENTED_EDGE ( 'NONE', *, *, #109, .T. ) ;
#136 = DIRECTION ( 'NONE',  ( 1.000000000000000000, 0.0000000000000000000, 0.0000000000000000000 ) ) ;
#137 = PRODUCT_RELATED_PRODUCT_CATEGORY ( 'detail', '', ( #139 ) ) ;
#138 = PLANE ( 'NONE',  #83 ) ;
#139 = PRODUCT ( 'Web Model 43847_46079', 'Web Model 43847_46079', '', ( #71 ) ) ;
#140 = ADVANCED_BREP_SHAPE_REPRESENTATION ( 'Web Model 43847_46079', ( #116, #210 ), #230 ) ;
#141 = ADVANCED_FACE ( 'NONE', ( #131 ), #138, .F. ) ;
#142 = CARTESIAN_POINT ( 'NONE',  ( 3.000000000000000000, -6.350000000000000500, 6.350000000000002300 ) ) ;
#143 = LOCAL_TIME ( 16, 48, 53.00000000000000000, #223 ) ;
#144 = DATE_TIME_ROLE ( 'creation_date' ) ;
#145 = APPLICATION_CONTEXT ( 'configuration controlled 3d designs of mechanical parts and assemblies' ) ;
#146 = VECTOR ( 'NONE', #192, 1000.000000000000000 ) ;
#147 = ADVANCED_FACE ( 'NONE', ( #81 ), #175, .F. ) ;
#148 = DIRECTION ( 'NONE',  ( -0.0000000000000000000, -0.0000000000000000000, 1.000000000000000000 ) ) ;
#149 = EDGE_CURVE ( 'NONE', #166, #220, #200, .T. ) ;
#150 = VERTEX_POINT ( 'NONE', #12 ) ;
#151 = PERSON_AND_ORGANIZATION ( #84, #169 ) ;
#152 = DIRECTION ( 'NONE',  ( 0.0000000000000000000, -1.000000000000000000, 2.048885995248197400E-016 ) ) ;
#153 = CARTESIAN_POINT ( 'NONE',  ( 3.000000000000000000, -6.350000000000000500, -6.350000000000002300 ) ) ;
#154 = CARTESIAN_POINT ( 'NONE',  ( -3.000000000000000000, 0.0000000000000000000, 0.0000000000000000000 ) ) ;
#155 = CARTESIAN_POINT ( 'NONE',  ( 3.000000000000000000, 6.349999999999998800, -6.349999999999999600 ) ) ;
#156 = COORDINATED_UNIVERSAL_TIME_OFFSET ( 5, 0, .BEHIND. ) ;
#157 = ORIENTED_EDGE ( 'NONE', *, *, #224, .F. ) ;
#158 = UNCERTAINTY_MEASURE_WITH_UNIT (LENGTH_MEASURE( 1.000000000000000100E-005 ), #64, 'distance_accuracy_value', 'NONE');
#159 = DIRECTION ( 'NONE',  ( 0.0000000000000000000, 0.0000000000000000000, -1.000000000000000000 ) ) ;
#160 = PLANE ( 'NONE',  #60 ) ;
#161 = LINE ( 'NONE', #57, #232 ) ;
#162 = CARTESIAN_POINT ( 'NONE',  ( 0.0000000000000000000, 0.0000000000000000000, 0.0000000000000000000 ) ) ;
#163 = DIRECTION ( 'NONE',  ( 0.0000000000000000000, 1.000000000000000000, -2.048885995248197400E-016 ) ) ;
#164 = EDGE_CURVE ( 'NONE', #166, #207, #222, .T. ) ;
#165 =( NAMED_UNIT ( * ) PLANE_ANGLE_UNIT ( ) SI_UNIT ( $, .RADIAN. ) );
#166 = VERTEX_POINT ( 'NONE', #142 ) ;
#167 = SHAPE_DEFINITION_REPRESENTATION ( #42, #140 ) ;
#168 = APPLICATION_PROTOCOL_DEFINITION ( 'international standard', 'config_control_design', 1994, #89 ) ;
#169 = ORGANIZATION ( 'UNSPECIFIED', 'UNSPECIFIED', '' ) ;
#170 = VECTOR ( 'NONE', #54, 1000.000000000000000 ) ;
#171 = SECURITY_CLASSIFICATION_LEVEL ( 'unclassified' ) ;
#172 = APPROVAL_STATUS ( 'not_yet_approved' ) ;
#173 = APPLICATION_PROTOCOL_DEFINITION ( 'international standard', 'config_control_design', 1994, #145 ) ;
#174 = CARTESIAN_POINT ( 'NONE',  ( 3.000000000000000000, 0.0000000000000000000, 0.0000000000000000000 ) ) ;
#175 = PLANE ( 'NONE',  #96 ) ;
#176 = ORIENTED_EDGE ( 'NONE', *, *, #125, .T. ) ;
#177 = PERSON_AND_ORGANIZATION ( #84, #169 ) ;
#178 = EDGE_CURVE ( 'NONE', #150, #11, #45, .T. ) ;
#179 = DIRECTION ( 'NONE',  ( -1.000000000000000000, -0.0000000000000000000, -0.0000000000000000000 ) ) ;
#180 = ADVANCED_FACE ( 'NONE', ( #183 ), #160, .F. ) ;
#181 = APPROVAL ( #23, 'UNSPECIFIED' ) ;
#182 = ORIENTED_EDGE ( 'NONE', *, *, #132, .F. ) ;
#183 = FACE_OUTER_BOUND ( 'NONE', #122, .T. ) ;
#184 = CALENDAR_DATE ( 2018, 12, 3 ) ;
#185 = EDGE_LOOP ( 'NONE', ( #234, #206, #94, #47 ) ) ;
#186 = APPROVAL_DATE_TIME ( #78, #86 ) ;
#187 = PERSON_AND_ORGANIZATION_ROLE ( 'design_owner' ) ;
#188 = ORIENTED_EDGE ( 'NONE', *, *, #16, .T. ) ;
#189 = CALENDAR_DATE ( 2018, 12, 3 ) ;
#190 = VECTOR ( 'NONE', #85, 1000.000000000000000 ) ;
#191 = CC_DESIGN_APPROVAL ( #233, ( #127 ) ) ;
#192 = DIRECTION ( 'NONE',  ( -1.000000000000000000, -0.0000000000000000000, -0.0000000000000000000 ) ) ;
#193 = EDGE_LOOP ( 'NONE', ( #58, #120, #228, #8 ) ) ;
#194 = CALENDAR_DATE ( 2018, 12, 3 ) ;
#195 = ORIENTED_EDGE ( 'NONE', *, *, #125, .F. ) ;
#196 = FACE_OUTER_BOUND ( 'NONE', #185, .T. ) ;
#197 = CARTESIAN_POINT ( 'NONE',  ( 3.000000000000000000, -6.350000000000000500, 6.350000000000002300 ) ) ;
#198 = LOCAL_TIME ( 16, 48, 53.00000000000000000, #214 ) ;
#199 = CARTESIAN_POINT ( 'NONE',  ( 3.000000000000000000, 6.349999999999998800, 6.349999999999999600 ) ) ;
#200 = LINE ( 'NONE', #48, #190 ) ;
#201 = CARTESIAN_POINT ( 'NONE',  ( 3.000000000000000000, 6.349999999999998800, 6.349999999999999600 ) ) ;
#202 = EDGE_CURVE ( 'NONE', #11, #28, #21, .T. ) ;
#203 = CARTESIAN_POINT ( 'NONE',  ( -3.000000000000000000, -6.350000000000000500, 6.350000000000002300 ) ) ;
#204 = DIRECTION ( 'NONE',  ( 0.0000000000000000000, -1.000000000000000000, 2.048885995248197400E-016 ) ) ;
#205 = COORDINATED_UNIVERSAL_TIME_OFFSET ( 5, 0, .BEHIND. ) ;
#206 = ORIENTED_EDGE ( 'NONE', *, *, #164, .F. ) ;
#207 = VERTEX_POINT ( 'NONE', #203 ) ;
#208 = ORIENTED_EDGE ( 'NONE', *, *, #132, .T. ) ;
#209 = CARTESIAN_POINT ( 'NONE',  ( -3.000000000000000000, 6.349999999999998800, 6.349999999999999600 ) ) ;
#210 = AXIS2_PLACEMENT_3D ( 'NONE', #162, #17, #126 ) ;
#211 = APPROVAL_PERSON_ORGANIZATION ( #108, #233, #5 ) ;
#212 = ADVANCED_FACE ( 'NONE', ( #6 ), #110, .F. ) ;
#213 = EDGE_CURVE ( 'NONE', #28, #207, #26, .T. ) ;
#214 = COORDINATED_UNIVERSAL_TIME_OFFSET ( 5, 0, .BEHIND. ) ;
#215 = DIRECTION ( 'NONE',  ( -1.000000000000000000, -0.0000000000000000000, -0.0000000000000000000 ) ) ;
#216 = DATE_AND_TIME ( #189, #236 ) ;
#217 =( NAMED_UNIT ( * ) SI_UNIT ( $, .STERADIAN. ) SOLID_ANGLE_UNIT ( ) );
#218 = PERSON_AND_ORGANIZATION_ROLE ( 'design_supplier' ) ;
#219 = ORIENTED_EDGE ( 'NONE', *, *, #202, .F. ) ;
#220 = VERTEX_POINT ( 'NONE', #1 ) ;
#221 = DIRECTION ( 'NONE',  ( -0.0000000000000000000, 1.000000000000000000, 2.048885995248197400E-016 ) ) ;
#222 = LINE ( 'NONE', #197, #53 ) ;
#223 = COORDINATED_UNIVERSAL_TIME_OFFSET ( 5, 0, .BEHIND. ) ;
#224 = EDGE_CURVE ( 'NONE', #220, #150, #123, .T. ) ;
#225 = CARTESIAN_POINT ( 'NONE',  ( 3.000000000000000000, 6.349999999999998800, 6.349999999999999600 ) ) ;
#226 = CC_DESIGN_DATE_AND_TIME_ASSIGNMENT ( #46, #38, ( #102 ) ) ;
#227 = CARTESIAN_POINT ( 'NONE',  ( 3.000000000000000000, 6.349999999999998800, 6.349999999999999600 ) ) ;
#228 = ORIENTED_EDGE ( 'NONE', *, *, #16, .F. ) ;
#230 =( GEOMETRIC_REPRESENTATION_CONTEXT ( 3 ) GLOBAL_UNCERTAINTY_ASSIGNED_CONTEXT ( ( #158 ) ) GLOBAL_UNIT_ASSIGNED_CONTEXT ( ( #64, #165, #217 ) ) REPRESENTATION_CONTEXT ( 'NONE', 'WORKASPACE' ) );
#229 = CALENDAR_DATE ( 2018, 12, 3 ) ;
#231 = ADVANCED_FACE ( 'NONE', ( #196 ), #31, .F. ) ;
#232 = VECTOR ( 'NONE', #221, 1000.000000000000000 ) ;
#233 = APPROVAL ( #172, 'UNSPECIFIED' ) ;
#234 = ORIENTED_EDGE ( 'NONE', *, *, #213, .T. ) ;
#235 = VECTOR ( 'NONE', #30, 1000.000000000000000 ) ;
#236 = LOCAL_TIME ( 16, 48, 53.00000000000000000, #156 ) ;
#237 = CARTESIAN_POINT ( 'NONE',  ( -3.000000000000000000, 6.349999999999998800, 6.349999999999999600 ) ) ;
ENDSEC;
END-ISO-10303-21;
