ISO-10303-21;
HEADER;
FILE_DESCRIPTION (( 'STEP AP203' ),
    '1' );
FILE_NAME ('Web Model 47777_47781.step',
    '2017-04-26T16:34:12',
    ( '' ),
    ( '' ),
    'SwSTEP 2.0',
    'SolidWorks 2016',
    '' );
FILE_SCHEMA (( 'CONFIG_CONTROL_DESIGN' ));
ENDSEC;

DATA;
#1 = CARTESIAN_POINT ( 'NONE',  ( -0.0000000000000000000, 4.999999999999999100, -5.000000000000000000 ) ) ;
#2 = EDGE_LOOP ( 'NONE', ( #300, #309, #12, #28 ) ) ;
#3 = PERSON_AND_ORGANIZATION_ROLE ( 'design_owner' ) ;
#4 = ORIENTED_EDGE ( 'NONE', *, *, #58, .T. ) ;
#5 = ADVANCED_FACE ( 'NONE', ( #127 ), #87, .F. ) ;
#6 = CC_DESIGN_PERSON_AND_ORGANIZATION_ASSIGNMENT ( #244, #288, ( #266 ) ) ;
#7 = VECTOR ( 'NONE', #218, 1000.000000000000000 ) ;
#8 = ORIENTED_EDGE ( 'NONE', *, *, #119, .T. ) ;
#9 = CARTESIAN_POINT ( 'NONE',  ( -5.000000000000000900, 4.999999999999999100, -5.000000000000000000 ) ) ;
#10 = CARTESIAN_POINT ( 'NONE',  ( -5.000000000000000900, 4.999999999999999100, -5.000000000000000000 ) ) ;
#11 = AXIS2_PLACEMENT_3D ( 'NONE', #89, #176, #33 ) ;
#12 = ORIENTED_EDGE ( 'NONE', *, *, #102, .T. ) ;
#13 = DIRECTION ( 'NONE',  ( 0.7071067811865474600, -0.7071067811865474600, 0.0000000000000000000 ) ) ;
#14 = VERTEX_POINT ( 'NONE', #308 ) ;
#15 = DIRECTION ( 'NONE',  ( 0.0000000000000000000, 1.000000000000000000, -0.0000000000000000000 ) ) ;
#16 = PLANE ( 'NONE',  #77 ) ;
#17 = AXIS2_PLACEMENT_3D ( 'NONE', #46, #54, #262 ) ;
#18 = CARTESIAN_POINT ( 'NONE',  ( 4.999999999999999100, -5.000000000000000900, -5.000000000000000000 ) ) ;
#19 = APPROVAL_DATE_TIME ( #321, #283 ) ;
#20 = LINE ( 'NONE', #173, #151 ) ;
#21 = SECURITY_CLASSIFICATION ( '', '', #24 ) ;
#22 = APPLICATION_CONTEXT ( 'configuration controlled 3d designs of mechanical parts and assemblies' ) ;
#23 = EDGE_CURVE ( 'NONE', #51, #172, #252, .T. ) ;
#24 = SECURITY_CLASSIFICATION_LEVEL ( 'unclassified' ) ;
#25 = CARTESIAN_POINT ( 'NONE',  ( 4.999999999999999100, 4.999999999999999100, 5.000000000000000000 ) ) ;
#26 = ORIENTED_EDGE ( 'NONE', *, *, #144, .F. ) ;
#27 = MECHANICAL_CONTEXT ( 'NONE', #44, 'mechanical' ) ;
#28 = ORIENTED_EDGE ( 'NONE', *, *, #144, .T. ) ;
#29 = ADVANCED_FACE ( 'NONE', ( #191 ), #253, .F. ) ;
#30 = DIRECTION ( 'NONE',  ( -0.0000000000000000000, 0.0000000000000000000, 1.000000000000000000 ) ) ;
#31 = ADVANCED_FACE ( 'NONE', ( #229 ), #259, .T. ) ;
#32 = DATE_AND_TIME ( #301, #279 ) ;
#33 = DIRECTION ( 'NONE',  ( -0.7071067811865474600, 0.7071067811865474600, 0.0000000000000000000 ) ) ;
#34 = CC_DESIGN_PERSON_AND_ORGANIZATION_ASSIGNMENT ( #116, #86, ( #21 ) ) ;
#35 = ORIENTED_EDGE ( 'NONE', *, *, #111, .F. ) ;
#36 = EDGE_CURVE ( 'NONE', #68, #168, #40, .T. ) ;
#37 = DIRECTION ( 'NONE',  ( 1.000000000000000000, 0.0000000000000000000, 0.0000000000000000000 ) ) ;
#38 = CARTESIAN_POINT ( 'NONE',  ( 0.0000000000000000000, 0.0000000000000000000, 5.000000000000000000 ) ) ;
#39 = DATE_TIME_ROLE ( 'creation_date' ) ;
#40 = LINE ( 'NONE', #167, #7 ) ;
#41 = CARTESIAN_POINT ( 'NONE',  ( 0.0000000000000000000, 0.0000000000000000000, 0.0000000000000000000 ) ) ;
#42 = AXIS2_PLACEMENT_3D ( 'NONE', #82, #206, #139 ) ;
#43 = EDGE_CURVE ( 'NONE', #196, #118, #145, .T. ) ;
#44 = APPLICATION_CONTEXT ( 'configuration controlled 3d designs of mechanical parts and assemblies' ) ;
#45 = ORIENTED_EDGE ( 'NONE', *, *, #217, .T. ) ;
#46 = CARTESIAN_POINT ( 'NONE',  ( 0.0000000000000000000, 0.0000000000000000000, 5.000000000000000000 ) ) ;
#47 = PERSON_AND_ORGANIZATION_ROLE ( 'creator' ) ;
#48 =( NAMED_UNIT ( * ) PLANE_ANGLE_UNIT ( ) SI_UNIT ( $, .RADIAN. ) );
#49 = EDGE_CURVE ( 'NONE', #114, #120, #152, .T. ) ;
#50 = PERSON_AND_ORGANIZATION ( #254, #80 ) ;
#51 = VERTEX_POINT ( 'NONE', #170 ) ;
#52 = DIRECTION ( 'NONE',  ( -0.0000000000000000000, -0.0000000000000000000, -1.000000000000000000 ) ) ;
#53 = FACE_OUTER_BOUND ( 'NONE', #2, .T. ) ;
#54 = DIRECTION ( 'NONE',  ( -0.0000000000000000000, 0.0000000000000000000, 1.000000000000000000 ) ) ;
#55 = VECTOR ( 'NONE', #258, 1000.000000000000000 ) ;
#56 = CC_DESIGN_DATE_AND_TIME_ASSIGNMENT ( #198, #96, ( #21 ) ) ;
#57 = ADVANCED_FACE ( 'NONE', ( #175 ), #159, .T. ) ;
#58 = EDGE_CURVE ( 'NONE', #14, #51, #233, .T. ) ;
#59 = CARTESIAN_POINT ( 'NONE',  ( 4.999999999999999100, 0.0000000000000000000, -5.000000000000000000 ) ) ;
#60 = CARTESIAN_POINT ( 'NONE',  ( 4.999999999999999100, 4.999999999999999100, -5.000000000000000000 ) ) ;
#61 = ORIENTED_EDGE ( 'NONE', *, *, #185, .F. ) ;
#62 =( GEOMETRIC_REPRESENTATION_CONTEXT ( 3 ) GLOBAL_UNCERTAINTY_ASSIGNED_CONTEXT ( ( #112 ) ) GLOBAL_UNIT_ASSIGNED_CONTEXT ( ( #212, #48, #293 ) ) REPRESENTATION_CONTEXT ( 'NONE', 'WORKASPACE' ) );
#63 = DIRECTION ( 'NONE',  ( 0.0000000000000000000, 1.000000000000000000, 0.0000000000000000000 ) ) ;
#64 = LINE ( 'NONE', #186, #269 ) ;
#65 = CARTESIAN_POINT ( 'NONE',  ( -9.199760500100243800E-016, -9.199760500100243800E-016, -5.000000000000000000 ) ) ;
#66 = EDGE_LOOP ( 'NONE', ( #179, #8, #224 ) ) ;
#67 = APPROVAL_ROLE ( '' ) ;
#68 = VERTEX_POINT ( 'NONE', #149 ) ;
#69 = AXIS2_PLACEMENT_3D ( 'NONE', #245, #63, #213 ) ;
#70 = CALENDAR_DATE ( 2017, 26, 4 ) ;
#71 = PERSON_AND_ORGANIZATION ( #254, #80 ) ;
#72 = ORIENTED_EDGE ( 'NONE', *, *, #49, .F. ) ;
#73 = APPROVAL ( #234, 'UNSPECIFIED' ) ;
#74 = CARTESIAN_POINT ( 'NONE',  ( 4.999999999999999100, 0.0000000000000000000, 5.000000000000000000 ) ) ;
#75 = VECTOR ( 'NONE', #15, 1000.000000000000000 ) ;
#76 = CARTESIAN_POINT ( 'NONE',  ( -9.199760500100243800E-016, -9.199760500100243800E-016, 5.000000000000000000 ) ) ;
#77 = AXIS2_PLACEMENT_3D ( 'NONE', #177, #270, #240 ) ;
#78 = APPROVAL_ROLE ( '' ) ;
#79 = ORIENTED_EDGE ( 'NONE', *, *, #119, .F. ) ;
#80 = ORGANIZATION ( 'UNSPECIFIED', 'UNSPECIFIED', '' ) ;
#81 = CARTESIAN_POINT ( 'NONE',  ( 4.999999999999999100, -5.000000000000000900, -5.000000000000000000 ) ) ;
#82 = CARTESIAN_POINT ( 'NONE',  ( 0.0000000000000000000, 0.0000000000000000000, -5.000000000000000000 ) ) ;
#83 = EDGE_CURVE ( 'NONE', #298, #68, #64, .T. ) ;
#84 = ORIENTED_EDGE ( 'NONE', *, *, #185, .T. ) ;
#85 = VECTOR ( 'NONE', #13, 1000.000000000000100 ) ;
#86 = PERSON_AND_ORGANIZATION_ROLE ( 'classification_officer' ) ;
#87 = PLANE ( 'NONE',  #69 ) ;
#88 = CARTESIAN_POINT ( 'NONE',  ( -9.199760500100243800E-016, -9.199760500100243800E-016, 5.000000000000000000 ) ) ;
#89 = CARTESIAN_POINT ( 'NONE',  ( -9.199760500100243800E-016, -9.199760500100243800E-016, 5.000000000000000000 ) ) ;
#90 = EDGE_LOOP ( 'NONE', ( #215, #125, #108, #257 ) ) ;
#91 = APPROVAL_PERSON_ORGANIZATION ( #50, #73, #78 ) ;
#92 = EDGE_LOOP ( 'NONE', ( #199, #174, #188, #228 ) ) ;
#93 = PERSON_AND_ORGANIZATION ( #254, #80 ) ;
#94 = PLANE ( 'NONE',  #242 ) ;
#95 = CC_DESIGN_APPROVAL ( #73, ( #21 ) ) ;
#96 = DATE_TIME_ROLE ( 'classification_date' ) ;
#97 = ADVANCED_BREP_SHAPE_REPRESENTATION ( 'Web Model 47777_47781', ( #320, #295, #143 ), #62 ) ;
#98 = DIRECTION ( 'NONE',  ( -1.000000000000000000, 0.0000000000000000000, 0.0000000000000000000 ) ) ;
#99 = DIRECTION ( 'NONE',  ( 0.0000000000000000000, 1.000000000000000000, -0.0000000000000000000 ) ) ;
#100 = DESIGN_CONTEXT ( 'detailed design', #22, 'design' ) ;
#101 = DIRECTION ( 'NONE',  ( 0.0000000000000000000, 1.000000000000000000, -0.0000000000000000000 ) ) ;
#102 = EDGE_CURVE ( 'NONE', #68, #256, #260, .T. ) ;
#103 = CALENDAR_DATE ( 2017, 26, 4 ) ;
#104 = CARTESIAN_POINT ( 'NONE',  ( 0.0000000000000000000, 4.999999999999999100, 5.000000000000000000 ) ) ;
#105 = ORIENTED_EDGE ( 'NONE', *, *, #208, .F. ) ;
#106 = EDGE_LOOP ( 'NONE', ( #319, #26, #79, #45 ) ) ;
#107 = CC_DESIGN_SECURITY_CLASSIFICATION ( #21, ( #266 ) ) ;
#108 = ORIENTED_EDGE ( 'NONE', *, *, #111, .T. ) ;
#109 = AXIS2_PLACEMENT_3D ( 'NONE', #306, #30, #313 ) ;
#110 = ORIENTED_EDGE ( 'NONE', *, *, #217, .F. ) ;
#111 = EDGE_CURVE ( 'NONE', #14, #155, #182, .T. ) ;
#112 = UNCERTAINTY_MEASURE_WITH_UNIT (LENGTH_MEASURE( 1.000000000000000100E-005 ), #212, 'distance_accuracy_value', 'NONE');
#113 = PLANE ( 'NONE',  #11 ) ;
#114 = VERTEX_POINT ( 'NONE', #243 ) ;
#115 = DIRECTION ( 'NONE',  ( 1.000000000000000000, 0.0000000000000000000, 0.0000000000000000000 ) ) ;
#116 = PERSON_AND_ORGANIZATION ( #254, #80 ) ;
#117 = DIRECTION ( 'NONE',  ( 0.7071067811865474600, -0.7071067811865474600, 0.0000000000000000000 ) ) ;
#118 = VERTEX_POINT ( 'NONE', #60 ) ;
#119 = EDGE_CURVE ( 'NONE', #298, #256, #163, .T. ) ;
#120 = VERTEX_POINT ( 'NONE', #81 ) ;
#121 = CLOSED_SHELL ( 'NONE', ( #231, #183, #57, #31, #255 ) ) ;
#122 = CARTESIAN_POINT ( 'NONE',  ( -5.000000000000000900, 0.0000000000000000000, -5.000000000000000000 ) ) ;
#123 = ORIENTED_EDGE ( 'NONE', *, *, #193, .F. ) ;
#124 = PRODUCT_RELATED_PRODUCT_CATEGORY ( 'detail', '', ( #222 ) ) ;
#125 = ORIENTED_EDGE ( 'NONE', *, *, #277, .F. ) ;
#126 = CARTESIAN_POINT ( 'NONE',  ( -5.000000000000000900, 4.999999999999999100, 5.000000000000000000 ) ) ;
#127 = FACE_OUTER_BOUND ( 'NONE', #106, .T. ) ;
#128 = ADVANCED_FACE ( 'NONE', ( #171 ), #94, .T. ) ;
#129 = FACE_OUTER_BOUND ( 'NONE', #66, .T. ) ;
#130 = LINE ( 'NONE', #65, #209 ) ;
#131 = CARTESIAN_POINT ( 'NONE',  ( 0.0000000000000000000, 4.999999999999999100, 5.000000000000000000 ) ) ;
#132 = EDGE_LOOP ( 'NONE', ( #105, #282, #204 ) ) ;
#133 = CARTESIAN_POINT ( 'NONE',  ( 4.999999999999999100, -5.000000000000000900, 5.000000000000000000 ) ) ;
#134 = LINE ( 'NONE', #250, #214 ) ;
#135 = VECTOR ( 'NONE', #189, 1000.000000000000000 ) ;
#136 = VECTOR ( 'NONE', #137, 1000.000000000000000 ) ;
#137 = DIRECTION ( 'NONE',  ( 0.0000000000000000000, 1.000000000000000000, -0.0000000000000000000 ) ) ;
#138 = EDGE_LOOP ( 'NONE', ( #187, #310, #61, #316 ) ) ;
#139 = DIRECTION ( 'NONE',  ( 1.000000000000000000, 0.0000000000000000000, 0.0000000000000000000 ) ) ;
#140 = COORDINATED_UNIVERSAL_TIME_OFFSET ( 5, 0, .BEHIND. ) ;
#141 = DIRECTION ( 'NONE',  ( 0.7071067811865474600, -0.7071067811865474600, 0.0000000000000000000 ) ) ;
#142 = COORDINATED_UNIVERSAL_TIME_OFFSET ( 5, 0, .BEHIND. ) ;
#143 = AXIS2_PLACEMENT_3D ( 'NONE', #41, #195, #37 ) ;
#144 = EDGE_CURVE ( 'NONE', #256, #120, #281, .T. ) ;
#145 = LINE ( 'NONE', #1, #210 ) ;
#146 = DIRECTION ( 'NONE',  ( 0.0000000000000000000, 1.000000000000000000, 0.0000000000000000000 ) ) ;
#147 = DIRECTION ( 'NONE',  ( 0.0000000000000000000, -0.0000000000000000000, 1.000000000000000000 ) ) ;
#148 = AXIS2_PLACEMENT_3D ( 'NONE', #104, #146, #147 ) ;
#149 = CARTESIAN_POINT ( 'NONE',  ( -5.000000000000000900, 4.999999999999999100, 5.000000000000000000 ) ) ;
#150 = PERSON_AND_ORGANIZATION_ROLE ( 'creator' ) ;
#151 = VECTOR ( 'NONE', #273, 1000.000000000000000 ) ;
#152 = LINE ( 'NONE', #194, #291 ) ;
#153 = LINE ( 'NONE', #126, #55 ) ;
#154 = SHAPE_DEFINITION_REPRESENTATION ( #197, #97 ) ;
#155 = VERTEX_POINT ( 'NONE', #203 ) ;
#156 = CALENDAR_DATE ( 2017, 26, 4 ) ;
#157 = ADVANCED_FACE ( 'NONE', ( #129 ), #304, .T. ) ;
#158 = APPLICATION_PROTOCOL_DEFINITION ( 'international standard', 'config_control_design', 1994, #44 ) ;
#159 = PLANE ( 'NONE',  #148 ) ;
#160 = FACE_OUTER_BOUND ( 'NONE', #138, .T. ) ;
#161 = PERSON_AND_ORGANIZATION ( #254, #80 ) ;
#162 = DIRECTION ( 'NONE',  ( 0.7071067811865474600, -0.7071067811865474600, 0.0000000000000000000 ) ) ;
#163 = LINE ( 'NONE', #190, #221 ) ;
#164 = CARTESIAN_POINT ( 'NONE',  ( -5.000000000000000900, -5.000000000000000900, 5.000000000000000000 ) ) ;
#165 = CC_DESIGN_PERSON_AND_ORGANIZATION_ASSIGNMENT ( #161, #3, ( #222 ) ) ;
#166 = VECTOR ( 'NONE', #99, 1000.000000000000000 ) ;
#167 = CARTESIAN_POINT ( 'NONE',  ( -5.000000000000000900, 4.999999999999999100, 5.000000000000000000 ) ) ;
#168 = VERTEX_POINT ( 'NONE', #10 ) ;
#169 = ORIENTED_EDGE ( 'NONE', *, *, #239, .T. ) ;
#170 = CARTESIAN_POINT ( 'NONE',  ( 4.999999999999999100, -5.000000000000000900, 5.000000000000000000 ) ) ;
#171 = FACE_OUTER_BOUND ( 'NONE', #235, .T. ) ;
#172 = VERTEX_POINT ( 'NONE', #18 ) ;
#173 = CARTESIAN_POINT ( 'NONE',  ( -5.000000000000000900, -5.000000000000000900, 5.000000000000000000 ) ) ;
#174 = ORIENTED_EDGE ( 'NONE', *, *, #23, .F. ) ;
#175 = FACE_OUTER_BOUND ( 'NONE', #90, .T. ) ;
#176 = DIRECTION ( 'NONE',  ( 0.7071067811865475700, 0.7071067811865475700, -0.0000000000000000000 ) ) ;
#177 = CARTESIAN_POINT ( 'NONE',  ( -9.199760500100243800E-016, -9.199760500100243800E-016, 5.000000000000000000 ) ) ;
#178 = DIRECTION ( 'NONE',  ( 0.0000000000000000000, 0.0000000000000000000, 1.000000000000000000 ) ) ;
#179 = ORIENTED_EDGE ( 'NONE', *, *, #83, .F. ) ;
#180 = DATE_AND_TIME ( #103, #280 ) ;
#181 = PRODUCT_DEFINITION ( 'UNKNOWN', '', #266, #100 ) ;
#182 = LINE ( 'NONE', #131, #135 ) ;
#183 = ADVANCED_FACE ( 'NONE', ( #160 ), #307, .F. ) ;
#184 = DIRECTION ( 'NONE',  ( -1.000000000000000000, 0.0000000000000000000, 0.0000000000000000000 ) ) ;
#185 = EDGE_CURVE ( 'NONE', #51, #155, #207, .T. ) ;
#186 = CARTESIAN_POINT ( 'NONE',  ( -5.000000000000000900, 0.0000000000000000000, 5.000000000000000000 ) ) ;
#187 = ORIENTED_EDGE ( 'NONE', *, *, #226, .T. ) ;
#188 = ORIENTED_EDGE ( 'NONE', *, *, #58, .F. ) ;
#189 = DIRECTION ( 'NONE',  ( 1.000000000000000000, 0.0000000000000000000, 0.0000000000000000000 ) ) ;
#190 = CARTESIAN_POINT ( 'NONE',  ( 0.0000000000000000000, -5.000000000000000900, 5.000000000000000000 ) ) ;
#191 = FACE_OUTER_BOUND ( 'NONE', #284, .T. ) ;
#192 = DIRECTION ( 'NONE',  ( 1.000000000000000000, 0.0000000000000000000, 0.0000000000000000000 ) ) ;
#193 = EDGE_CURVE ( 'NONE', #114, #168, #315, .T. ) ;
#194 = CARTESIAN_POINT ( 'NONE',  ( 0.0000000000000000000, -5.000000000000000900, -5.000000000000000000 ) ) ;
#195 = DIRECTION ( 'NONE',  ( 0.0000000000000000000, 0.0000000000000000000, 1.000000000000000000 ) ) ;
#196 = VERTEX_POINT ( 'NONE', #9 ) ;
#197 = PRODUCT_DEFINITION_SHAPE ( 'NONE', 'NONE',  #181 ) ;
#198 = DATE_AND_TIME ( #156, #275 ) ;
#199 = ORIENTED_EDGE ( 'NONE', *, *, #208, .T. ) ;
#200 = APPROVAL ( #227, 'UNSPECIFIED' ) ;
#201 = EDGE_LOOP ( 'NONE', ( #4, #84, #35 ) ) ;
#202 = DATE_AND_TIME ( #70, #271 ) ;
#203 = CARTESIAN_POINT ( 'NONE',  ( 4.999999999999999100, 4.999999999999999100, 5.000000000000000000 ) ) ;
#204 = ORIENTED_EDGE ( 'NONE', *, *, #226, .F. ) ;
#205 = AXIS2_PLACEMENT_3D ( 'NONE', #38, #246, #276 ) ;
#206 = DIRECTION ( 'NONE',  ( -0.0000000000000000000, 0.0000000000000000000, 1.000000000000000000 ) ) ;
#207 = LINE ( 'NONE', #74, #166 ) ;
#208 = EDGE_CURVE ( 'NONE', #196, #172, #130, .T. ) ;
#209 = VECTOR ( 'NONE', #141, 1000.000000000000100 ) ;
#210 = VECTOR ( 'NONE', #115, 1000.000000000000000 ) ;
#211 = CLOSED_SHELL ( 'NONE', ( #128, #5, #267, #157, #29 ) ) ;
#212 =( LENGTH_UNIT ( ) NAMED_UNIT ( * ) SI_UNIT ( .MILLI., .METRE. ) );
#213 = DIRECTION ( 'NONE',  ( 0.0000000000000000000, -0.0000000000000000000, 1.000000000000000000 ) ) ;
#214 = VECTOR ( 'NONE', #162, 1000.000000000000100 ) ;
#215 = ORIENTED_EDGE ( 'NONE', *, *, #43, .F. ) ;
#216 = CC_DESIGN_APPROVAL ( #200, ( #181 ) ) ;
#217 = EDGE_CURVE ( 'NONE', #298, #114, #20, .T. ) ;
#218 = DIRECTION ( 'NONE',  ( -0.0000000000000000000, -0.0000000000000000000, -1.000000000000000000 ) ) ;
#219 = VECTOR ( 'NONE', #286, 1000.000000000000000 ) ;
#220 = CALENDAR_DATE ( 2017, 26, 4 ) ;
#221 = VECTOR ( 'NONE', #292, 1000.000000000000000 ) ;
#222 = PRODUCT ( 'Web Model 47777_47781', 'Web Model 47777_47781', '', ( #27 ) ) ;
#223 = DIRECTION ( 'NONE',  ( 0.0000000000000000000, 0.0000000000000000000, 1.000000000000000000 ) ) ;
#224 = ORIENTED_EDGE ( 'NONE', *, *, #102, .F. ) ;
#225 = LINE ( 'NONE', #59, #75 ) ;
#226 = EDGE_CURVE ( 'NONE', #172, #118, #225, .T. ) ;
#227 = APPROVAL_STATUS ( 'not_yet_approved' ) ;
#228 = ORIENTED_EDGE ( 'NONE', *, *, #277, .T. ) ;
#229 = FACE_OUTER_BOUND ( 'NONE', #201, .T. ) ;
#230 = CC_DESIGN_PERSON_AND_ORGANIZATION_ASSIGNMENT ( #71, #150, ( #181 ) ) ;
#231 = ADVANCED_FACE ( 'NONE', ( #272 ), #113, .F. ) ;
#232 = EDGE_CURVE ( 'NONE', #155, #118, #265, .T. ) ;
#233 = LINE ( 'NONE', #88, #85 ) ;
#234 = APPROVAL_STATUS ( 'not_yet_approved' ) ;
#235 = EDGE_LOOP ( 'NONE', ( #123, #110, #302, #285 ) ) ;
#236 = CARTESIAN_POINT ( 'NONE',  ( 4.999999999999999100, -5.000000000000000900, 5.000000000000000000 ) ) ;
#237 = APPLICATION_PROTOCOL_DEFINITION ( 'international standard', 'config_control_design', 1994, #22 ) ;
#238 = APPROVAL_PERSON_ORGANIZATION ( #247, #200, #314 ) ;
#239 = EDGE_CURVE ( 'NONE', #168, #120, #134, .T. ) ;
#240 = DIRECTION ( 'NONE',  ( -0.7071067811865474600, 0.7071067811865474600, 0.0000000000000000000 ) ) ;
#241 = ORIENTED_EDGE ( 'NONE', *, *, #193, .T. ) ;
#242 = AXIS2_PLACEMENT_3D ( 'NONE', #289, #98, #223 ) ;
#243 = CARTESIAN_POINT ( 'NONE',  ( -5.000000000000000900, -5.000000000000000900, -5.000000000000000000 ) ) ;
#244 = PERSON_AND_ORGANIZATION ( #254, #80 ) ;
#245 = CARTESIAN_POINT ( 'NONE',  ( 0.0000000000000000000, -5.000000000000000900, 5.000000000000000000 ) ) ;
#246 = DIRECTION ( 'NONE',  ( -0.0000000000000000000, 0.0000000000000000000, 1.000000000000000000 ) ) ;
#247 = PERSON_AND_ORGANIZATION ( #254, #80 ) ;
#248 = APPROVAL_STATUS ( 'not_yet_approved' ) ;
#249 = CC_DESIGN_DATE_AND_TIME_ASSIGNMENT ( #32, #39, ( #181 ) ) ;
#250 = CARTESIAN_POINT ( 'NONE',  ( -9.199760500100243800E-016, -9.199760500100243800E-016, -5.000000000000000000 ) ) ;
#251 = PLANE ( 'NONE',  #42 ) ;
#252 = LINE ( 'NONE', #133, #219 ) ;
#253 = PLANE ( 'NONE',  #109 ) ;
#254 = PERSON ( 'UNSPECIFIED', 'UNSPECIFIED', 'UNSPECIFIED', ('UNSPECIFIED'), ('UNSPECIFIED'), ('UNSPECIFIED') ) ;
#255 = ADVANCED_FACE ( 'NONE', ( #290 ), #251, .F. ) ;
#256 = VERTEX_POINT ( 'NONE', #236 ) ;
#257 = ORIENTED_EDGE ( 'NONE', *, *, #232, .T. ) ;
#258 = DIRECTION ( 'NONE',  ( -0.0000000000000000000, -0.0000000000000000000, -1.000000000000000000 ) ) ;
#259 = PLANE ( 'NONE',  #17 ) ;
#260 = LINE ( 'NONE', #76, #312 ) ;
#261 = COORDINATED_UNIVERSAL_TIME_OFFSET ( 5, 0, .BEHIND. ) ;
#262 = DIRECTION ( 'NONE',  ( 1.000000000000000000, 0.0000000000000000000, 0.0000000000000000000 ) ) ;
#263 = COORDINATED_UNIVERSAL_TIME_OFFSET ( 5, 0, .BEHIND. ) ;
#264 = DIRECTION ( 'NONE',  ( -0.0000000000000000000, -0.0000000000000000000, -1.000000000000000000 ) ) ;
#265 = LINE ( 'NONE', #25, #303 ) ;
#266 = PRODUCT_DEFINITION_FORMATION_WITH_SPECIFIED_SOURCE ( 'ANY', '', #222, .NOT_KNOWN. ) ;
#267 = ADVANCED_FACE ( 'NONE', ( #53 ), #16, .T. ) ;
#268 = CARTESIAN_POINT ( 'NONE',  ( 4.999999999999999100, 0.0000000000000000000, 5.000000000000000000 ) ) ;
#269 = VECTOR ( 'NONE', #101, 1000.000000000000000 ) ;
#270 = DIRECTION ( 'NONE',  ( 0.7071067811865475700, 0.7071067811865475700, -0.0000000000000000000 ) ) ;
#271 = LOCAL_TIME ( 12, 34, 12.00000000000000000, #261 ) ;
#272 = FACE_OUTER_BOUND ( 'NONE', #92, .T. ) ;
#273 = DIRECTION ( 'NONE',  ( -0.0000000000000000000, -0.0000000000000000000, -1.000000000000000000 ) ) ;
#274 = PERSON_AND_ORGANIZATION ( #254, #80 ) ;
#275 = LOCAL_TIME ( 12, 34, 12.00000000000000000, #318 ) ;
#276 = DIRECTION ( 'NONE',  ( 1.000000000000000000, 0.0000000000000000000, 0.0000000000000000000 ) ) ;
#277 = EDGE_CURVE ( 'NONE', #14, #196, #153, .T. ) ;
#278 = APPROVAL_PERSON_ORGANIZATION ( #93, #283, #67 ) ;
#279 = LOCAL_TIME ( 12, 34, 12.00000000000000000, #263 ) ;
#280 = LOCAL_TIME ( 12, 34, 12.00000000000000000, #140 ) ;
#281 = LINE ( 'NONE', #317, #294 ) ;
#282 = ORIENTED_EDGE ( 'NONE', *, *, #43, .T. ) ;
#283 = APPROVAL ( #248, 'UNSPECIFIED' ) ;
#284 = EDGE_LOOP ( 'NONE', ( #241, #169, #72 ) ) ;
#285 = ORIENTED_EDGE ( 'NONE', *, *, #36, .T. ) ;
#286 = DIRECTION ( 'NONE',  ( -0.0000000000000000000, -0.0000000000000000000, -1.000000000000000000 ) ) ;
#287 = LOCAL_TIME ( 12, 34, 12.00000000000000000, #142 ) ;
#288 = PERSON_AND_ORGANIZATION_ROLE ( 'design_supplier' ) ;
#289 = CARTESIAN_POINT ( 'NONE',  ( -5.000000000000000900, 0.0000000000000000000, 5.000000000000000000 ) ) ;
#290 = FACE_OUTER_BOUND ( 'NONE', #132, .T. ) ;
#291 = VECTOR ( 'NONE', #192, 1000.000000000000000 ) ;
#292 = DIRECTION ( 'NONE',  ( 1.000000000000000000, 0.0000000000000000000, 0.0000000000000000000 ) ) ;
#293 =( NAMED_UNIT ( * ) SI_UNIT ( $, .STERADIAN. ) SOLID_ANGLE_UNIT ( ) );
#294 = VECTOR ( 'NONE', #52, 1000.000000000000000 ) ;
#295 = MANIFOLD_SOLID_BREP ( 'Boss-Extrude3', #121 ) ;
#296 = APPROVAL_DATE_TIME ( #180, #73 ) ;
#297 = CC_DESIGN_APPROVAL ( #283, ( #266 ) ) ;
#298 = VERTEX_POINT ( 'NONE', #164 ) ;
#299 = AXIS2_PLACEMENT_3D ( 'NONE', #268, #184, #178 ) ;
#300 = ORIENTED_EDGE ( 'NONE', *, *, #239, .F. ) ;
#301 = CALENDAR_DATE ( 2017, 26, 4 ) ;
#302 = ORIENTED_EDGE ( 'NONE', *, *, #83, .T. ) ;
#303 = VECTOR ( 'NONE', #264, 1000.000000000000000 ) ;
#304 = PLANE ( 'NONE',  #205 ) ;
#305 = APPROVAL_DATE_TIME ( #202, #200 ) ;
#306 = CARTESIAN_POINT ( 'NONE',  ( 0.0000000000000000000, 0.0000000000000000000, -5.000000000000000000 ) ) ;
#307 = PLANE ( 'NONE',  #299 ) ;
#308 = CARTESIAN_POINT ( 'NONE',  ( -5.000000000000000900, 4.999999999999999100, 5.000000000000000000 ) ) ;
#309 = ORIENTED_EDGE ( 'NONE', *, *, #36, .F. ) ;
#310 = ORIENTED_EDGE ( 'NONE', *, *, #232, .F. ) ;
#311 = CC_DESIGN_PERSON_AND_ORGANIZATION_ASSIGNMENT ( #274, #47, ( #266 ) ) ;
#312 = VECTOR ( 'NONE', #117, 1000.000000000000100 ) ;
#313 = DIRECTION ( 'NONE',  ( 1.000000000000000000, 0.0000000000000000000, 0.0000000000000000000 ) ) ;
#314 = APPROVAL_ROLE ( '' ) ;
#315 = LINE ( 'NONE', #122, #136 ) ;
#316 = ORIENTED_EDGE ( 'NONE', *, *, #23, .T. ) ;
#317 = CARTESIAN_POINT ( 'NONE',  ( 4.999999999999999100, -5.000000000000000900, 5.000000000000000000 ) ) ;
#318 = COORDINATED_UNIVERSAL_TIME_OFFSET ( 5, 0, .BEHIND. ) ;
#319 = ORIENTED_EDGE ( 'NONE', *, *, #49, .T. ) ;
#320 = MANIFOLD_SOLID_BREP ( 'Boss-Extrude2', #211 ) ;
#321 = DATE_AND_TIME ( #220, #287 ) ;
ENDSEC;
END-ISO-10303-21;
