ISO-10303-21;
HEADER;
FILE_DESCRIPTION (( 'STEP AP203' ),
    '1' );
FILE_NAME ('Web Model 17600_17603.step',
    '2021-06-14T14:04:54',
    ( '' ),
    ( '' ),
    'SwSTEP 2.0',
    'SolidWorks 2018',
    '' );
FILE_SCHEMA (( 'CONFIG_CONTROL_DESIGN' ));
ENDSEC;

DATA;
#1 = DIRECTION ( 'NONE',  ( -0.000000000000000000, -0.000000000000000000, -1.000000000000000000 ) ) ;
#2 = ADVANCED_FACE ( 'NONE', ( #119 ), #142, .T. ) ;
#3 = APPROVAL ( #120, 'UNSPECIFIED' ) ;
#4 = ORIENTED_EDGE ( 'NONE', *, *, #58, .F. ) ;
#5 = CC_DESIGN_PERSON_AND_ORGANIZATION_ASSIGNMENT ( #36, #168, ( #96 ) ) ;
#6 = PERSON_AND_ORGANIZATION ( #122, #63 ) ;
#7 = DIRECTION ( 'NONE',  ( -0.000000000000000000, -0.000000000000000000, -1.000000000000000000 ) ) ;
#8 = DIRECTION ( 'NONE',  ( 1.000000000000000000, 0.000000000000000000, 0.000000000000000000 ) ) ;
#9 = CARTESIAN_POINT ( 'NONE',  ( 6.349999999999999645, 7.776507174585692163E-16, 2.000000000000000000 ) ) ;
#10 = LOCAL_TIME ( 10, 4, 54.00000000000000000, #74 ) ;
#11 = APPROVAL_ROLE ( '' ) ;
#12 = VERTEX_POINT ( 'NONE', #166 ) ;
#13 = CIRCLE ( 'NONE', #88, 6.349999999999999645 ) ;
#14 = PERSON_AND_ORGANIZATION ( #122, #63 ) ;
#15 = PERSON_AND_ORGANIZATION ( #122, #63 ) ;
#16 = APPROVAL ( #134, 'UNSPECIFIED' ) ;
#17 = PRODUCT_DEFINITION_SHAPE ( 'NONE', 'NONE',  #48 ) ;
#18 = COORDINATED_UNIVERSAL_TIME_OFFSET ( 5, 0, .BEHIND. ) ;
#19 = EDGE_CURVE ( 'NONE', #12, #21, #87, .T. ) ;
#20 = VERTEX_POINT ( 'NONE', #115 ) ;
#21 = VERTEX_POINT ( 'NONE', #49 ) ;
#22 = EDGE_LOOP ( 'NONE', ( #51, #101 ) ) ;
#23 = DIRECTION ( 'NONE',  ( -1.000000000000000000, 0.000000000000000000, 0.000000000000000000 ) ) ;
#24 = LOCAL_TIME ( 10, 4, 54.00000000000000000, #97 ) ;
#25 = DATE_AND_TIME ( #158, #129 ) ;
#26 = MECHANICAL_CONTEXT ( 'NONE', #143, 'mechanical' ) ;
#27 = CC_DESIGN_PERSON_AND_ORGANIZATION_ASSIGNMENT ( #6, #42, ( #37 ) ) ;
#28 = ORIENTED_EDGE ( 'NONE', *, *, #72, .F. ) ;
#29 = DIRECTION ( 'NONE',  ( 0.000000000000000000, 0.000000000000000000, 1.000000000000000000 ) ) ;
#30 = PERSON_AND_ORGANIZATION_ROLE ( 'design_supplier' ) ;
#31 =( NAMED_UNIT ( * ) PLANE_ANGLE_UNIT ( ) SI_UNIT ( $, .RADIAN. ) );
#32 = DIRECTION ( 'NONE',  ( 1.000000000000000000, 0.000000000000000000, 0.000000000000000000 ) ) ;
#33 = PERSON_AND_ORGANIZATION ( #122, #63 ) ;
#34 = DESIGN_CONTEXT ( 'detailed design', #117, 'design' ) ;
#35 = CC_DESIGN_DATE_AND_TIME_ASSIGNMENT ( #25, #153, ( #48 ) ) ;
#36 = PERSON_AND_ORGANIZATION ( #122, #63 ) ;
#37 = SECURITY_CLASSIFICATION ( '', '', #107 ) ;
#38 = AXIS2_PLACEMENT_3D ( 'NONE', #62, #1, #23 ) ;
#39 = CC_DESIGN_SECURITY_CLASSIFICATION ( #37, ( #94 ) ) ;
#40 = DIRECTION ( 'NONE',  ( 1.000000000000000000, 0.000000000000000000, 0.000000000000000000 ) ) ;
#41 = DATE_AND_TIME ( #124, #10 ) ;
#42 = PERSON_AND_ORGANIZATION_ROLE ( 'classification_officer' ) ;
#43 = APPROVAL_ROLE ( '' ) ;
#44 = CIRCLE ( 'NONE', #86, 6.349999999999999645 ) ;
#45 = CARTESIAN_POINT ( 'NONE',  ( 0.000000000000000000, 0.000000000000000000, 2.000000000000000000 ) ) ;
#46 = CC_DESIGN_PERSON_AND_ORGANIZATION_ASSIGNMENT ( #83, #30, ( #94 ) ) ;
#47 = ADVANCED_FACE ( 'NONE', ( #77 ), #114, .F. ) ;
#48 = PRODUCT_DEFINITION ( 'UNKNOWN', '', #94, #34 ) ;
#49 = CARTESIAN_POINT ( 'NONE',  ( 6.349999999999999645, 7.776507174585692163E-16, 0.000000000000000000 ) ) ;
#50 = DIRECTION ( 'NONE',  ( 1.000000000000000000, 0.000000000000000000, -0.000000000000000000 ) ) ;
#51 = ORIENTED_EDGE ( 'NONE', *, *, #60, .T. ) ;
#52 = DIRECTION ( 'NONE',  ( 0.000000000000000000, 0.000000000000000000, 1.000000000000000000 ) ) ;
#53 = CARTESIAN_POINT ( 'NONE',  ( 0.000000000000000000, 0.000000000000000000, 0.000000000000000000 ) ) ;
#54 = CYLINDRICAL_SURFACE ( 'NONE', #123, 6.349999999999999645 ) ;
#55 = FACE_OUTER_BOUND ( 'NONE', #22, .T. ) ;
#56 = APPROVAL ( #66, 'UNSPECIFIED' ) ;
#57 = CC_DESIGN_APPROVAL ( #16, ( #94 ) ) ;
#58 = EDGE_CURVE ( 'NONE', #154, #20, #44, .T. ) ;
#59 = CARTESIAN_POINT ( 'NONE',  ( -6.349999999999999645, 0.000000000000000000, 2.000000000000000000 ) ) ;
#60 = EDGE_CURVE ( 'NONE', #20, #154, #73, .T. ) ;
#61 = EDGE_LOOP ( 'NONE', ( #28, #160, #71, #170 ) ) ;
#62 = CARTESIAN_POINT ( 'NONE',  ( 0.000000000000000000, 0.000000000000000000, 2.000000000000000000 ) ) ;
#63 = ORGANIZATION ( 'UNSPECIFIED', 'UNSPECIFIED', '' ) ;
#64 = APPLICATION_PROTOCOL_DEFINITION ( 'international standard', 'config_control_design', 1994, #117 ) ;
#65 = CC_DESIGN_APPROVAL ( #56, ( #48 ) ) ;
#66 = APPROVAL_STATUS ( 'not_yet_approved' ) ;
#67 = DIRECTION ( 'NONE',  ( 0.000000000000000000, 0.000000000000000000, 1.000000000000000000 ) ) ;
#68 = ORIENTED_EDGE ( 'NONE', *, *, #72, .T. ) ;
#69 = CARTESIAN_POINT ( 'NONE',  ( 0.000000000000000000, 0.000000000000000000, 2.000000000000000000 ) ) ;
#70 = AXIS2_PLACEMENT_3D ( 'NONE', #150, #52, #40 ) ;
#71 = ORIENTED_EDGE ( 'NONE', *, *, #81, .T. ) ;
#72 = EDGE_CURVE ( 'NONE', #154, #21, #144, .T. ) ;
#73 = CIRCLE ( 'NONE', #151, 6.349999999999999645 ) ;
#74 = COORDINATED_UNIVERSAL_TIME_OFFSET ( 5, 0, .BEHIND. ) ;
#75 = LINE ( 'NONE', #59, #84 ) ;
#76 = AXIS2_PLACEMENT_3D ( 'NONE', #125, #141, #50 ) ;
#77 = FACE_OUTER_BOUND ( 'NONE', #157, .T. ) ;
#78 = APPROVAL_PERSON_ORGANIZATION ( #14, #3, #43 ) ;
#79 = APPLICATION_PROTOCOL_DEFINITION ( 'international standard', 'config_control_design', 1994, #143 ) ;
#80 = DIRECTION ( 'NONE',  ( 1.000000000000000000, 0.000000000000000000, 0.000000000000000000 ) ) ;
#81 = EDGE_CURVE ( 'NONE', #20, #12, #75, .T. ) ;
#82 = CARTESIAN_POINT ( 'NONE',  ( 0.000000000000000000, 0.000000000000000000, 0.000000000000000000 ) ) ;
#83 = PERSON_AND_ORGANIZATION ( #122, #63 ) ;
#84 = VECTOR ( 'NONE', #7, 1000.000000000000000 ) ;
#85 = DATE_AND_TIME ( #100, #116 ) ;
#86 = AXIS2_PLACEMENT_3D ( 'NONE', #171, #172, #80 ) ;
#87 = CIRCLE ( 'NONE', #70, 6.349999999999999645 ) ;
#88 = AXIS2_PLACEMENT_3D ( 'NONE', #53, #156, #136 ) ;
#89 = COORDINATED_UNIVERSAL_TIME_OFFSET ( 5, 0, .BEHIND. ) ;
#90 = CARTESIAN_POINT ( 'NONE',  ( 6.349999999999999645, 7.776507174585692163E-16, 2.000000000000000000 ) ) ;
#91 = DIRECTION ( 'NONE',  ( 0.000000000000000000, 0.000000000000000000, 1.000000000000000000 ) ) ;
#92 = MANIFOLD_SOLID_BREP ( 'Boss-Extrude1', #149 ) ;
#93 =( LENGTH_UNIT ( ) NAMED_UNIT ( * ) SI_UNIT ( .MILLI., .METRE. ) );
#94 = PRODUCT_DEFINITION_FORMATION_WITH_SPECIFIED_SOURCE ( 'ANY', '', #96, .NOT_KNOWN. ) ;
#95 = DIRECTION ( 'NONE',  ( -0.000000000000000000, -0.000000000000000000, -1.000000000000000000 ) ) ;
#96 = PRODUCT ( 'Web Model 17600_17603', 'Web Model 17600_17603', '', ( #26 ) ) ;
#97 = COORDINATED_UNIVERSAL_TIME_OFFSET ( 5, 0, .BEHIND. ) ;
#98 = ORIENTED_EDGE ( 'NONE', *, *, #140, .T. ) ;
#99 = CC_DESIGN_PERSON_AND_ORGANIZATION_ASSIGNMENT ( #33, #103, ( #48 ) ) ;
#100 = CALENDAR_DATE ( 2021, 14, 6 ) ;
#101 = ORIENTED_EDGE ( 'NONE', *, *, #58, .T. ) ;
#102 = DIRECTION ( 'NONE',  ( -1.000000000000000000, 0.000000000000000000, 0.000000000000000000 ) ) ;
#103 = PERSON_AND_ORGANIZATION_ROLE ( 'creator' ) ;
#104 = APPROVAL_DATE_TIME ( #109, #16 ) ;
#105 = CALENDAR_DATE ( 2021, 14, 6 ) ;
#106 = APPROVAL_ROLE ( '' ) ;
#107 = SECURITY_CLASSIFICATION_LEVEL ( 'unclassified' ) ;
#108 = PERSON_AND_ORGANIZATION ( #122, #63 ) ;
#109 = DATE_AND_TIME ( #105, #159 ) ;
#110 = UNCERTAINTY_MEASURE_WITH_UNIT (LENGTH_MEASURE( 1.000000000000000082E-05 ), #93, 'distance_accuracy_value', 'NONE');
#111 = CC_DESIGN_PERSON_AND_ORGANIZATION_ASSIGNMENT ( #108, #118, ( #94 ) ) ;
#112 = AXIS2_PLACEMENT_3D ( 'NONE', #69, #67, #130 ) ;
#113 = ORIENTED_EDGE ( 'NONE', *, *, #81, .F. ) ;
#114 = PLANE ( 'NONE',  #76 ) ;
#115 = CARTESIAN_POINT ( 'NONE',  ( -6.349999999999999645, 0.000000000000000000, 2.000000000000000000 ) ) ;
#116 = LOCAL_TIME ( 10, 4, 54.00000000000000000, #18 ) ;
#117 = APPLICATION_CONTEXT ( 'configuration controlled 3d designs of mechanical parts and assemblies' ) ;
#118 = PERSON_AND_ORGANIZATION_ROLE ( 'creator' ) ;
#119 = FACE_OUTER_BOUND ( 'NONE', #61, .T. ) ;
#120 = APPROVAL_STATUS ( 'not_yet_approved' ) ;
#121 =( NAMED_UNIT ( * ) SI_UNIT ( $, .STERADIAN. ) SOLID_ANGLE_UNIT ( ) );
#122 = PERSON ( 'UNSPECIFIED', 'UNSPECIFIED', 'UNSPECIFIED', ('UNSPECIFIED'), ('UNSPECIFIED'), ('UNSPECIFIED') ) ;
#123 = AXIS2_PLACEMENT_3D ( 'NONE', #155, #95, #102 ) ;
#124 = CALENDAR_DATE ( 2021, 14, 6 ) ;
#125 = CARTESIAN_POINT ( 'NONE',  ( 0.000000000000000000, 0.000000000000000000, 0.000000000000000000 ) ) ;
#126 = ADVANCED_FACE ( 'NONE', ( #55 ), #145, .T. ) ;
#127 = EDGE_LOOP ( 'NONE', ( #4, #68, #98, #113 ) ) ;
#128 = PRODUCT_RELATED_PRODUCT_CATEGORY ( 'detail', '', ( #96 ) ) ;
#129 = LOCAL_TIME ( 10, 4, 54.00000000000000000, #161 ) ;
#130 = DIRECTION ( 'NONE',  ( 1.000000000000000000, 0.000000000000000000, -0.000000000000000000 ) ) ;
#131 = DATE_TIME_ROLE ( 'classification_date' ) ;
#132 = CC_DESIGN_APPROVAL ( #3, ( #37 ) ) ;
#133 = SHAPE_DEFINITION_REPRESENTATION ( #17, #169 ) ;
#134 = APPROVAL_STATUS ( 'not_yet_approved' ) ;
#135 = ORIENTED_EDGE ( 'NONE', *, *, #140, .F. ) ;
#136 = DIRECTION ( 'NONE',  ( 1.000000000000000000, 0.000000000000000000, 0.000000000000000000 ) ) ;
#137 = APPROVAL_DATE_TIME ( #165, #56 ) ;
#138 = CALENDAR_DATE ( 2021, 14, 6 ) ;
#139 = CC_DESIGN_DATE_AND_TIME_ASSIGNMENT ( #41, #131, ( #37 ) ) ;
#140 = EDGE_CURVE ( 'NONE', #21, #12, #13, .T. ) ;
#141 = DIRECTION ( 'NONE',  ( 0.000000000000000000, 0.000000000000000000, 1.000000000000000000 ) ) ;
#142 = CYLINDRICAL_SURFACE ( 'NONE', #38, 6.349999999999999645 ) ;
#143 = APPLICATION_CONTEXT ( 'configuration controlled 3d designs of mechanical parts and assemblies' ) ;
#144 = LINE ( 'NONE', #90, #175 ) ;
#145 = PLANE ( 'NONE',  #112 ) ;
#146 = FACE_OUTER_BOUND ( 'NONE', #127, .T. ) ;
#147 = APPROVAL_PERSON_ORGANIZATION ( #15, #16, #11 ) ;
#148 = ORIENTED_EDGE ( 'NONE', *, *, #19, .F. ) ;
#149 = CLOSED_SHELL ( 'NONE', ( #163, #2, #126, #47 ) ) ;
#150 = CARTESIAN_POINT ( 'NONE',  ( 0.000000000000000000, 0.000000000000000000, 0.000000000000000000 ) ) ;
#151 = AXIS2_PLACEMENT_3D ( 'NONE', #45, #91, #8 ) ;
#152 = AXIS2_PLACEMENT_3D ( 'NONE', #82, #29, #32 ) ;
#153 = DATE_TIME_ROLE ( 'creation_date' ) ;
#154 = VERTEX_POINT ( 'NONE', #9 ) ;
#155 = CARTESIAN_POINT ( 'NONE',  ( 0.000000000000000000, 0.000000000000000000, 2.000000000000000000 ) ) ;
#156 = DIRECTION ( 'NONE',  ( 0.000000000000000000, 0.000000000000000000, 1.000000000000000000 ) ) ;
#157 = EDGE_LOOP ( 'NONE', ( #148, #135 ) ) ;
#158 = CALENDAR_DATE ( 2021, 14, 6 ) ;
#159 = LOCAL_TIME ( 10, 4, 54.00000000000000000, #89 ) ;
#160 = ORIENTED_EDGE ( 'NONE', *, *, #60, .F. ) ;
#161 = COORDINATED_UNIVERSAL_TIME_OFFSET ( 5, 0, .BEHIND. ) ;
#162 = PERSON_AND_ORGANIZATION ( #122, #63 ) ;
#163 = ADVANCED_FACE ( 'NONE', ( #146 ), #54, .T. ) ;
#164 = APPROVAL_DATE_TIME ( #85, #3 ) ;
#165 = DATE_AND_TIME ( #138, #24 ) ;
#166 = CARTESIAN_POINT ( 'NONE',  ( -6.349999999999999645, 0.000000000000000000, 0.000000000000000000 ) ) ;
#167 = DIRECTION ( 'NONE',  ( -0.000000000000000000, -0.000000000000000000, -1.000000000000000000 ) ) ;
#168 = PERSON_AND_ORGANIZATION_ROLE ( 'design_owner' ) ;
#169 = ADVANCED_BREP_SHAPE_REPRESENTATION ( 'Web Model 17600_17603', ( #92, #152 ), #174 ) ;
#170 = ORIENTED_EDGE ( 'NONE', *, *, #19, .T. ) ;
#171 = CARTESIAN_POINT ( 'NONE',  ( 0.000000000000000000, 0.000000000000000000, 2.000000000000000000 ) ) ;
#172 = DIRECTION ( 'NONE',  ( 0.000000000000000000, 0.000000000000000000, 1.000000000000000000 ) ) ;
#173 = APPROVAL_PERSON_ORGANIZATION ( #162, #56, #106 ) ;
#174 =( GEOMETRIC_REPRESENTATION_CONTEXT ( 3 ) GLOBAL_UNCERTAINTY_ASSIGNED_CONTEXT ( ( #110 ) ) GLOBAL_UNIT_ASSIGNED_CONTEXT ( ( #93, #31, #121 ) ) REPRESENTATION_CONTEXT ( 'NONE', 'WORKASPACE' ) );
#175 = VECTOR ( 'NONE', #167, 1000.000000000000000 ) ;
ENDSEC;
END-ISO-10303-21;
