ISO-10303-21;
HEADER;
FILE_DESCRIPTION (( 'STEP AP203' ),
    '1' );
FILE_NAME ('Web Model 14966_14979.step',
    '2020-07-27T18:46:37',
    ( '' ),
    ( '' ),
    'SwSTEP 2.0',
    'SolidWorks 2018',
    '' );
FILE_SCHEMA (( 'CONFIG_CONTROL_DESIGN' ));
ENDSEC;

DATA;
#1 = CIRCLE ( 'NONE', #59, 25.00000000000000000 ) ;
#2 = CYLINDRICAL_SURFACE ( 'NONE', #28, 25.00000000000000000 ) ;
#3 = DIRECTION ( 'NONE',  ( 1.000000000000000000, 0.0000000000000000000, 0.0000000000000000000 ) ) ;
#4 =( GEOMETRIC_REPRESENTATION_CONTEXT ( 3 ) GLOBAL_UNCERTAINTY_ASSIGNED_CONTEXT ( ( #26 ) ) GLOBAL_UNIT_ASSIGNED_CONTEXT ( ( #170, #118, #60 ) ) REPRESENTATION_CONTEXT ( 'NONE', 'WORKASPACE' ) );
#5 = DIRECTION ( 'NONE',  ( -1.000000000000000000, -0.0000000000000000000, -0.0000000000000000000 ) ) ;
#6 = CARTESIAN_POINT ( 'NONE',  ( 2.000000000000000000, 0.0000000000000000000, 25.00000000000000000 ) ) ;
#7 = DIRECTION ( 'NONE',  ( -1.000000000000000000, -0.0000000000000000000, -0.0000000000000000000 ) ) ;
#8 = DIRECTION ( 'NONE',  ( 1.000000000000000000, 0.0000000000000000000, 0.0000000000000000000 ) ) ;
#9 = ORIENTED_EDGE ( 'NONE', *, *, #67, .F. ) ;
#10 = CARTESIAN_POINT ( 'NONE',  ( 2.000000000000000000, 0.0000000000000000000, 0.0000000000000000000 ) ) ;
#11 = CC_DESIGN_PERSON_AND_ORGANIZATION_ASSIGNMENT ( #73, #159, ( #129 ) ) ;
#12 = ORIENTED_EDGE ( 'NONE', *, *, #55, .F. ) ;
#13 = FACE_OUTER_BOUND ( 'NONE', #80, .T. ) ;
#14 = SECURITY_CLASSIFICATION_LEVEL ( 'unclassified' ) ;
#15 = AXIS2_PLACEMENT_3D ( 'NONE', #86, #3, #36 ) ;
#16 = ORIENTED_EDGE ( 'NONE', *, *, #157, .T. ) ;
#17 = SHAPE_DEFINITION_REPRESENTATION ( #147, #148 ) ;
#18 = ORIENTED_EDGE ( 'NONE', *, *, #55, .T. ) ;
#19 = CARTESIAN_POINT ( 'NONE',  ( 2.000000000000000000, 0.0000000000000000000, 0.0000000000000000000 ) ) ;
#20 = PERSON_AND_ORGANIZATION ( #152, #75 ) ;
#21 = PRODUCT_RELATED_PRODUCT_CATEGORY ( 'detail', '', ( #125 ) ) ;
#22 = APPROVAL_DATE_TIME ( #38, #96 ) ;
#23 = DIRECTION ( 'NONE',  ( 1.000000000000000000, 0.0000000000000000000, 0.0000000000000000000 ) ) ;
#24 = EDGE_CURVE ( 'NONE', #43, #77, #82, .T. ) ;
#25 = ORIENTED_EDGE ( 'NONE', *, *, #150, .T. ) ;
#26 = UNCERTAINTY_MEASURE_WITH_UNIT (LENGTH_MEASURE( 1.000000000000000082E-05 ), #170, 'distance_accuracy_value', 'NONE');
#27 = DIRECTION ( 'NONE',  ( 0.0000000000000000000, 0.0000000000000000000, 1.000000000000000000 ) ) ;
#28 = AXIS2_PLACEMENT_3D ( 'NONE', #10, #103, #130 ) ;
#29 = VECTOR ( 'NONE', #40, 1000.000000000000000 ) ;
#30 = EDGE_LOOP ( 'NONE', ( #25, #138 ) ) ;
#31 = AXIS2_PLACEMENT_3D ( 'NONE', #49, #98, #110 ) ;
#32 = PERSON_AND_ORGANIZATION ( #152, #75 ) ;
#33 = CARTESIAN_POINT ( 'NONE',  ( 2.000000000000000000, 0.0000000000000000000, 25.00000000000000000 ) ) ;
#34 = FACE_OUTER_BOUND ( 'NONE', #112, .T. ) ;
#35 = APPROVAL_PERSON_ORGANIZATION ( #121, #69, #123 ) ;
#36 = DIRECTION ( 'NONE',  ( 0.0000000000000000000, 0.0000000000000000000, -1.000000000000000000 ) ) ;
#37 = AXIS2_PLACEMENT_3D ( 'NONE', #19, #164, #72 ) ;
#38 = DATE_AND_TIME ( #70, #141 ) ;
#39 = CARTESIAN_POINT ( 'NONE',  ( 2.000000000000000000, 0.0000000000000000000, 0.0000000000000000000 ) ) ;
#40 = DIRECTION ( 'NONE',  ( -1.000000000000000000, -0.0000000000000000000, -0.0000000000000000000 ) ) ;
#41 = PERSON_AND_ORGANIZATION_ROLE ( 'creator' ) ;
#42 = APPROVAL_STATUS ( 'not_yet_approved' ) ;
#43 = VERTEX_POINT ( 'NONE', #114 ) ;
#44 = EDGE_CURVE ( 'NONE', #116, #104, #153, .T. ) ;
#45 = CC_DESIGN_PERSON_AND_ORGANIZATION_ASSIGNMENT ( #154, #61, ( #83 ) ) ;
#46 = ORIENTED_EDGE ( 'NONE', *, *, #44, .F. ) ;
#47 = LOCAL_TIME ( 14, 46, 37.00000000000000000, #51 ) ;
#48 = PERSON_AND_ORGANIZATION ( #152, #75 ) ;
#49 = CARTESIAN_POINT ( 'NONE',  ( -2.000000000000000000, 0.0000000000000000000, 0.0000000000000000000 ) ) ;
#50 = FACE_OUTER_BOUND ( 'NONE', #30, .T. ) ;
#51 = COORDINATED_UNIVERSAL_TIME_OFFSET ( 5, 0, .BEHIND. ) ;
#52 = PERSON_AND_ORGANIZATION_ROLE ( 'design_supplier' ) ;
#53 = CARTESIAN_POINT ( 'NONE',  ( 0.0000000000000000000, 0.0000000000000000000, 0.0000000000000000000 ) ) ;
#54 = CC_DESIGN_PERSON_AND_ORGANIZATION_ASSIGNMENT ( #32, #41, ( #142 ) ) ;
#55 = EDGE_CURVE ( 'NONE', #43, #116, #119, .T. ) ;
#56 = APPROVAL_DATE_TIME ( #88, #69 ) ;
#57 = COORDINATED_UNIVERSAL_TIME_OFFSET ( 5, 0, .BEHIND. ) ;
#58 = PLANE ( 'NONE',  #15 ) ;
#59 = AXIS2_PLACEMENT_3D ( 'NONE', #78, #8, #120 ) ;
#60 =( NAMED_UNIT ( * ) SI_UNIT ( $, .STERADIAN. ) SOLID_ANGLE_UNIT ( ) );
#61 = PERSON_AND_ORGANIZATION_ROLE ( 'creator' ) ;
#62 = MECHANICAL_CONTEXT ( 'NONE', #169, 'mechanical' ) ;
#63 = LOCAL_TIME ( 14, 46, 37.00000000000000000, #57 ) ;
#64 = CYLINDRICAL_SURFACE ( 'NONE', #168, 25.00000000000000000 ) ;
#65 = DATE_TIME_ROLE ( 'classification_date' ) ;
#66 = DATE_AND_TIME ( #105, #47 ) ;
#67 = EDGE_CURVE ( 'NONE', #104, #116, #163, .T. ) ;
#68 = FACE_OUTER_BOUND ( 'NONE', #101, .T. ) ;
#69 = APPROVAL ( #97, 'UNSPECIFIED' ) ;
#70 = CALENDAR_DATE ( 2020, 27, 7 ) ;
#71 = CARTESIAN_POINT ( 'NONE',  ( -2.000000000000000000, 3.061616997868383043E-15, -25.00000000000000000 ) ) ;
#72 = DIRECTION ( 'NONE',  ( 0.0000000000000000000, 0.0000000000000000000, -1.000000000000000000 ) ) ;
#73 = PERSON_AND_ORGANIZATION ( #152, #75 ) ;
#74 = DIRECTION ( 'NONE',  ( 1.000000000000000000, 0.0000000000000000000, 0.0000000000000000000 ) ) ;
#75 = ORGANIZATION ( 'UNSPECIFIED', 'UNSPECIFIED', '' ) ;
#76 = CC_DESIGN_DATE_AND_TIME_ASSIGNMENT ( #79, #128, ( #142 ) ) ;
#77 = VERTEX_POINT ( 'NONE', #33 ) ;
#78 = CARTESIAN_POINT ( 'NONE',  ( 2.000000000000000000, 0.0000000000000000000, 0.0000000000000000000 ) ) ;
#79 = DATE_AND_TIME ( #161, #63 ) ;
#80 = EDGE_LOOP ( 'NONE', ( #151, #18, #158, #175 ) ) ;
#81 = ADVANCED_FACE ( 'NONE', ( #34 ), #58, .F. ) ;
#82 = CIRCLE ( 'NONE', #37, 25.00000000000000000 ) ;
#83 = PRODUCT_DEFINITION_FORMATION_WITH_SPECIFIED_SOURCE ( 'ANY', '', #125, .NOT_KNOWN. ) ;
#84 = CARTESIAN_POINT ( 'NONE',  ( 2.000000000000000000, 3.061616997868383043E-15, -25.00000000000000000 ) ) ;
#85 = MANIFOLD_SOLID_BREP ( 'Boss-Extrude1', #135 ) ;
#86 = CARTESIAN_POINT ( 'NONE',  ( -2.000000000000000000, 0.0000000000000000000, 0.0000000000000000000 ) ) ;
#87 = COORDINATED_UNIVERSAL_TIME_OFFSET ( 5, 0, .BEHIND. ) ;
#88 = DATE_AND_TIME ( #156, #95 ) ;
#89 = APPROVAL_PERSON_ORGANIZATION ( #108, #96, #92 ) ;
#90 = LINE ( 'NONE', #6, #29 ) ;
#91 = APPLICATION_PROTOCOL_DEFINITION ( 'international standard', 'config_control_design', 1994, #169 ) ;
#92 = APPROVAL_ROLE ( '' ) ;
#93 = CARTESIAN_POINT ( 'NONE',  ( 2.000000000000000000, 0.0000000000000000000, 0.0000000000000000000 ) ) ;
#94 = APPROVAL_ROLE ( '' ) ;
#95 = LOCAL_TIME ( 14, 46, 37.00000000000000000, #160 ) ;
#96 = APPROVAL ( #42, 'UNSPECIFIED' ) ;
#97 = APPROVAL_STATUS ( 'not_yet_approved' ) ;
#98 = DIRECTION ( 'NONE',  ( 1.000000000000000000, 0.0000000000000000000, 0.0000000000000000000 ) ) ;
#99 = APPROVAL_DATE_TIME ( #134, #133 ) ;
#100 = DIRECTION ( 'NONE',  ( 0.0000000000000000000, 0.0000000000000000000, -1.000000000000000000 ) ) ;
#101 = EDGE_LOOP ( 'NONE', ( #12, #162, #16, #109 ) ) ;
#102 = PERSON_AND_ORGANIZATION ( #152, #75 ) ;
#103 = DIRECTION ( 'NONE',  ( -1.000000000000000000, -0.0000000000000000000, -0.0000000000000000000 ) ) ;
#104 = VERTEX_POINT ( 'NONE', #140 ) ;
#105 = CALENDAR_DATE ( 2020, 27, 7 ) ;
#106 = ADVANCED_FACE ( 'NONE', ( #50 ), #117, .T. ) ;
#107 = CC_DESIGN_PERSON_AND_ORGANIZATION_ASSIGNMENT ( #48, #52, ( #83 ) ) ;
#108 = PERSON_AND_ORGANIZATION ( #152, #75 ) ;
#109 = ORIENTED_EDGE ( 'NONE', *, *, #67, .T. ) ;
#110 = DIRECTION ( 'NONE',  ( 0.0000000000000000000, 0.0000000000000000000, -1.000000000000000000 ) ) ;
#111 = CC_DESIGN_APPROVAL ( #96, ( #83 ) ) ;
#112 = EDGE_LOOP ( 'NONE', ( #9, #46 ) ) ;
#113 = CARTESIAN_POINT ( 'NONE',  ( -2.000000000000000000, 0.0000000000000000000, 0.0000000000000000000 ) ) ;
#114 = CARTESIAN_POINT ( 'NONE',  ( 2.000000000000000000, 3.061616997868383043E-15, -25.00000000000000000 ) ) ;
#115 = AXIS2_PLACEMENT_3D ( 'NONE', #53, #27, #74 ) ;
#116 = VERTEX_POINT ( 'NONE', #71 ) ;
#117 = PLANE ( 'NONE',  #173 ) ;
#118 =( NAMED_UNIT ( * ) PLANE_ANGLE_UNIT ( ) SI_UNIT ( $, .RADIAN. ) );
#119 = LINE ( 'NONE', #84, #146 ) ;
#120 = DIRECTION ( 'NONE',  ( 0.0000000000000000000, 0.0000000000000000000, -1.000000000000000000 ) ) ;
#121 = PERSON_AND_ORGANIZATION ( #152, #75 ) ;
#122 = CC_DESIGN_APPROVAL ( #133, ( #142 ) ) ;
#123 = APPROVAL_ROLE ( '' ) ;
#124 = AXIS2_PLACEMENT_3D ( 'NONE', #113, #23, #137 ) ;
#125 = PRODUCT ( 'Web Model 14966_14979', 'Web Model 14966_14979', '', ( #62 ) ) ;
#126 = PERSON_AND_ORGANIZATION_ROLE ( 'design_owner' ) ;
#127 = APPLICATION_CONTEXT ( 'configuration controlled 3d designs of mechanical parts and assemblies' ) ;
#128 = DATE_TIME_ROLE ( 'creation_date' ) ;
#129 = SECURITY_CLASSIFICATION ( '', '', #14 ) ;
#130 = DIRECTION ( 'NONE',  ( 0.0000000000000000000, 0.0000000000000000000, 1.000000000000000000 ) ) ;
#131 = CC_DESIGN_PERSON_AND_ORGANIZATION_ASSIGNMENT ( #20, #126, ( #125 ) ) ;
#132 = ADVANCED_FACE ( 'NONE', ( #13 ), #2, .T. ) ;
#133 = APPROVAL ( #155, 'UNSPECIFIED' ) ;
#134 = DATE_AND_TIME ( #174, #149 ) ;
#135 = CLOSED_SHELL ( 'NONE', ( #132, #144, #106, #81 ) ) ;
#136 = CC_DESIGN_APPROVAL ( #69, ( #129 ) ) ;
#137 = DIRECTION ( 'NONE',  ( 0.0000000000000000000, 0.0000000000000000000, -1.000000000000000000 ) ) ;
#138 = ORIENTED_EDGE ( 'NONE', *, *, #24, .T. ) ;
#139 = DESIGN_CONTEXT ( 'detailed design', #127, 'design' ) ;
#140 = CARTESIAN_POINT ( 'NONE',  ( -2.000000000000000000, 0.0000000000000000000, 25.00000000000000000 ) ) ;
#141 = LOCAL_TIME ( 14, 46, 37.00000000000000000, #167 ) ;
#142 = PRODUCT_DEFINITION ( 'UNKNOWN', '', #83, #139 ) ;
#143 = DIRECTION ( 'NONE',  ( 1.000000000000000000, 0.0000000000000000000, 0.0000000000000000000 ) ) ;
#144 = ADVANCED_FACE ( 'NONE', ( #68 ), #64, .T. ) ;
#145 = CC_DESIGN_SECURITY_CLASSIFICATION ( #129, ( #83 ) ) ;
#146 = VECTOR ( 'NONE', #5, 1000.000000000000000 ) ;
#147 = PRODUCT_DEFINITION_SHAPE ( 'NONE', 'NONE',  #142 ) ;
#148 = ADVANCED_BREP_SHAPE_REPRESENTATION ( 'Web Model 14966_14979', ( #85, #115 ), #4 ) ;
#149 = LOCAL_TIME ( 14, 46, 37.00000000000000000, #87 ) ;
#150 = EDGE_CURVE ( 'NONE', #77, #43, #1, .T. ) ;
#151 = ORIENTED_EDGE ( 'NONE', *, *, #24, .F. ) ;
#152 = PERSON ( 'UNSPECIFIED', 'UNSPECIFIED', 'UNSPECIFIED', ('UNSPECIFIED'), ('UNSPECIFIED'), ('UNSPECIFIED') ) ;
#153 = CIRCLE ( 'NONE', #31, 25.00000000000000000 ) ;
#154 = PERSON_AND_ORGANIZATION ( #152, #75 ) ;
#155 = APPROVAL_STATUS ( 'not_yet_approved' ) ;
#156 = CALENDAR_DATE ( 2020, 27, 7 ) ;
#157 = EDGE_CURVE ( 'NONE', #77, #104, #90, .T. ) ;
#158 = ORIENTED_EDGE ( 'NONE', *, *, #44, .T. ) ;
#159 = PERSON_AND_ORGANIZATION_ROLE ( 'classification_officer' ) ;
#160 = COORDINATED_UNIVERSAL_TIME_OFFSET ( 5, 0, .BEHIND. ) ;
#161 = CALENDAR_DATE ( 2020, 27, 7 ) ;
#162 = ORIENTED_EDGE ( 'NONE', *, *, #150, .F. ) ;
#163 = CIRCLE ( 'NONE', #124, 25.00000000000000000 ) ;
#164 = DIRECTION ( 'NONE',  ( 1.000000000000000000, 0.0000000000000000000, 0.0000000000000000000 ) ) ;
#165 = CC_DESIGN_DATE_AND_TIME_ASSIGNMENT ( #66, #65, ( #129 ) ) ;
#166 = APPROVAL_PERSON_ORGANIZATION ( #102, #133, #94 ) ;
#167 = COORDINATED_UNIVERSAL_TIME_OFFSET ( 5, 0, .BEHIND. ) ;
#168 = AXIS2_PLACEMENT_3D ( 'NONE', #93, #7, #171 ) ;
#169 = APPLICATION_CONTEXT ( 'configuration controlled 3d designs of mechanical parts and assemblies' ) ;
#170 =( LENGTH_UNIT ( ) NAMED_UNIT ( * ) SI_UNIT ( .MILLI., .METRE. ) );
#171 = DIRECTION ( 'NONE',  ( 0.0000000000000000000, 0.0000000000000000000, 1.000000000000000000 ) ) ;
#172 = APPLICATION_PROTOCOL_DEFINITION ( 'international standard', 'config_control_design', 1994, #127 ) ;
#173 = AXIS2_PLACEMENT_3D ( 'NONE', #39, #143, #100 ) ;
#174 = CALENDAR_DATE ( 2020, 27, 7 ) ;
#175 = ORIENTED_EDGE ( 'NONE', *, *, #157, .F. ) ;
ENDSEC;
END-ISO-10303-21;
