ISO-10303-21;
HEADER;
FILE_DESCRIPTION (( 'STEP AP203' ),
    '1' );
FILE_NAME ('Web Model 47944.STEP',
    '2017-01-31T15:21:00',
    ( '' ),
    ( '' ),
    'SwSTEP 2.0',
    'SolidWorks 2016',
    '' );
FILE_SCHEMA (( 'CONFIG_CONTROL_DESIGN' ));
ENDSEC;

DATA;
#1 = CALENDAR_DATE ( 2017, 31, 1 ) ;
#2 = EDGE_CURVE ( 'NONE', #62, #146, #16, .T. ) ;
#3 = CALENDAR_DATE ( 2017, 31, 1 ) ;
#4 = CLOSED_SHELL ( 'NONE', ( #81, #236, #143, #165, #182, #98 ) ) ;
#5 = CARTESIAN_POINT ( 'NONE',  ( 50.00000000000000000, 0.0000000000000000000, 0.0000000000000000000 ) ) ;
#6 = ORGANIZATION ( 'UNSPECIFIED', 'UNSPECIFIED', '' ) ;
#7 = VERTEX_POINT ( 'NONE', #190 ) ;
#8 = AXIS2_PLACEMENT_3D ( 'NONE', #60, #140, #10 ) ;
#9 = CARTESIAN_POINT ( 'NONE',  ( 0.0000000000000000000, 0.0000000000000000000, -4.000000000000000000 ) ) ;
#10 = DIRECTION ( 'NONE',  ( -1.000000000000000000, 0.0000000000000000000, -0.0000000000000000000 ) ) ;
#11 = CARTESIAN_POINT ( 'NONE',  ( 50.00000000000000000, 0.0000000000000000000, 0.0000000000000000000 ) ) ;
#12 = VECTOR ( 'NONE', #22, 1000.000000000000000 ) ;
#13 = ORIENTED_EDGE ( 'NONE', *, *, #2, .T. ) ;
#14 = CC_DESIGN_PERSON_AND_ORGANIZATION_ASSIGNMENT ( #56, #79, ( #155 ) ) ;
#15 = LOCAL_TIME ( 10, 21, 0.0000000000000000000, #234 ) ;
#16 = LINE ( 'NONE', #55, #221 ) ;
#17 = LINE ( 'NONE', #218, #156 ) ;
#18 = CALENDAR_DATE ( 2017, 31, 1 ) ;
#19 = VECTOR ( 'NONE', #114, 1000.000000000000000 ) ;
#20 = ORIENTED_EDGE ( 'NONE', *, *, #224, .T. ) ;
#21 = EDGE_LOOP ( 'NONE', ( #189, #162, #186, #71 ) ) ;
#22 = DIRECTION ( 'NONE',  ( -1.000000000000000000, -0.0000000000000000000, -0.0000000000000000000 ) ) ;
#23 = PERSON_AND_ORGANIZATION_ROLE ( 'design_owner' ) ;
#24 = CARTESIAN_POINT ( 'NONE',  ( 0.0000000000000000000, 50.00000000000000000, -4.000000000000000000 ) ) ;
#25 = VECTOR ( 'NONE', #139, 1000.000000000000000 ) ;
#26 = DIRECTION ( 'NONE',  ( 0.0000000000000000000, 0.0000000000000000000, -1.000000000000000000 ) ) ;
#27 = CARTESIAN_POINT ( 'NONE',  ( 0.0000000000000000000, 0.0000000000000000000, 0.0000000000000000000 ) ) ;
#28 = DIRECTION ( 'NONE',  ( 1.000000000000000000, 0.0000000000000000000, 0.0000000000000000000 ) ) ;
#29 = EDGE_CURVE ( 'NONE', #146, #47, #179, .T. ) ;
#30 = VERTEX_POINT ( 'NONE', #5 ) ;
#31 = LOCAL_TIME ( 10, 21, 0.0000000000000000000, #171 ) ;
#32 = PERSON_AND_ORGANIZATION ( #67, #6 ) ;
#33 = EDGE_LOOP ( 'NONE', ( #173, #84, #167, #68 ) ) ;
#34 = ORIENTED_EDGE ( 'NONE', *, *, #105, .F. ) ;
#35 = PRODUCT ( 'Web Model 47944', 'Web Model 47944', '', ( #135 ) ) ;
#36 = CARTESIAN_POINT ( 'NONE',  ( 0.0000000000000000000, 0.0000000000000000000, -4.000000000000000000 ) ) ;
#37 = CARTESIAN_POINT ( 'NONE',  ( 0.0000000000000000000, 0.0000000000000000000, -4.000000000000000000 ) ) ;
#38 = DIRECTION ( 'NONE',  ( 0.0000000000000000000, -1.000000000000000000, 0.0000000000000000000 ) ) ;
#39 = LINE ( 'NONE', #108, #188 ) ;
#40 = APPROVAL_STATUS ( 'not_yet_approved' ) ;
#41 = DIRECTION ( 'NONE',  ( 0.0000000000000000000, 1.000000000000000000, 0.0000000000000000000 ) ) ;
#42 = AXIS2_PLACEMENT_3D ( 'NONE', #24, #181, #193 ) ;
#43 = PLANE ( 'NONE',  #8 ) ;
#44 = CC_DESIGN_DATE_AND_TIME_ASSIGNMENT ( #65, #201, ( #155 ) ) ;
#45 = PERSON_AND_ORGANIZATION ( #67, #6 ) ;
#46 = PERSON_AND_ORGANIZATION_ROLE ( 'design_supplier' ) ;
#47 = VERTEX_POINT ( 'NONE', #157 ) ;
#48 = CC_DESIGN_SECURITY_CLASSIFICATION ( #155, ( #208 ) ) ;
#49 = SHAPE_DEFINITION_REPRESENTATION ( #124, #101 ) ;
#50 = VERTEX_POINT ( 'NONE', #131 ) ;
#51 = AXIS2_PLACEMENT_3D ( 'NONE', #232, #95, #26 ) ;
#52 = APPROVAL_PERSON_ORGANIZATION ( #115, #134, #120 ) ;
#53 = DIRECTION ( 'NONE',  ( 1.000000000000000000, 0.0000000000000000000, 0.0000000000000000000 ) ) ;
#54 = LINE ( 'NONE', #61, #129 ) ;
#55 = CARTESIAN_POINT ( 'NONE',  ( 0.0000000000000000000, 0.0000000000000000000, -4.000000000000000000 ) ) ;
#56 = PERSON_AND_ORGANIZATION ( #67, #6 ) ;
#57 = APPROVAL ( #214, 'UNSPECIFIED' ) ;
#58 = LINE ( 'NONE', #11, #25 ) ;
#59 = APPROVAL_ROLE ( '' ) ;
#60 = CARTESIAN_POINT ( 'NONE',  ( 0.0000000000000000000, 50.00000000000000000, -4.000000000000000000 ) ) ;
#61 = CARTESIAN_POINT ( 'NONE',  ( 50.00000000000000000, 0.0000000000000000000, -4.000000000000000000 ) ) ;
#62 = VERTEX_POINT ( 'NONE', #110 ) ;
#63 = APPROVAL_DATE_TIME ( #187, #57 ) ;
#64 = LINE ( 'NONE', #160, #148 ) ;
#65 = DATE_AND_TIME ( #210, #31 ) ;
#66 = LINE ( 'NONE', #27, #19 ) ;
#67 = PERSON ( 'UNSPECIFIED', 'UNSPECIFIED', 'UNSPECIFIED', ('UNSPECIFIED'), ('UNSPECIFIED'), ('UNSPECIFIED') ) ;
#68 = ORIENTED_EDGE ( 'NONE', *, *, #237, .T. ) ;
#69 = CARTESIAN_POINT ( 'NONE',  ( 0.0000000000000000000, 50.00000000000000000, -4.000000000000000000 ) ) ;
#70 = AXIS2_PLACEMENT_3D ( 'NONE', #37, #225, #175 ) ;
#71 = ORIENTED_EDGE ( 'NONE', *, *, #125, .T. ) ;
#72 = PLANE ( 'NONE',  #86 ) ;
#73 = DIRECTION ( 'NONE',  ( 0.0000000000000000000, 0.0000000000000000000, 1.000000000000000000 ) ) ;
#74 = DATE_TIME_ROLE ( 'creation_date' ) ;
#75 = APPLICATION_PROTOCOL_DEFINITION ( 'international standard', 'config_control_design', 1994, #158 ) ;
#76 =( LENGTH_UNIT ( ) NAMED_UNIT ( * ) SI_UNIT ( .MILLI., .METRE. ) );
#77 =( GEOMETRIC_REPRESENTATION_CONTEXT ( 3 ) GLOBAL_UNCERTAINTY_ASSIGNED_CONTEXT ( ( #147 ) ) GLOBAL_UNIT_ASSIGNED_CONTEXT ( ( #76, #141, #180 ) ) REPRESENTATION_CONTEXT ( 'NONE', 'WORKASPACE' ) );
#78 = COORDINATED_UNIVERSAL_TIME_OFFSET ( 5, 0, .BEHIND. ) ;
#79 = PERSON_AND_ORGANIZATION_ROLE ( 'classification_officer' ) ;
#80 = EDGE_LOOP ( 'NONE', ( #128, #196, #235, #203 ) ) ;
#81 = ADVANCED_FACE ( 'NONE', ( #126 ), #226, .T. ) ;
#82 = APPROVAL_DATE_TIME ( #176, #134 ) ;
#83 = AXIS2_PLACEMENT_3D ( 'NONE', #94, #159, #28 ) ;
#84 = ORIENTED_EDGE ( 'NONE', *, *, #191, .F. ) ;
#85 = ORIENTED_EDGE ( 'NONE', *, *, #223, .F. ) ;
#86 = AXIS2_PLACEMENT_3D ( 'NONE', #227, #209, #90 ) ;
#87 = PERSON_AND_ORGANIZATION ( #67, #6 ) ;
#88 = ORIENTED_EDGE ( 'NONE', *, *, #233, .F. ) ;
#89 = DESIGN_CONTEXT ( 'detailed design', #158, 'design' ) ;
#90 = DIRECTION ( 'NONE',  ( -1.000000000000000000, 0.0000000000000000000, -0.0000000000000000000 ) ) ;
#91 = DIRECTION ( 'NONE',  ( 0.0000000000000000000, 0.0000000000000000000, 1.000000000000000000 ) ) ;
#92 = ORIENTED_EDGE ( 'NONE', *, *, #29, .F. ) ;
#93 = CC_DESIGN_APPROVAL ( #134, ( #155 ) ) ;
#94 = CARTESIAN_POINT ( 'NONE',  ( 0.0000000000000000000, 0.0000000000000000000, 0.0000000000000000000 ) ) ;
#95 = DIRECTION ( 'NONE',  ( 1.000000000000000000, 0.0000000000000000000, 0.0000000000000000000 ) ) ;
#96 = PLANE ( 'NONE',  #42 ) ;
#97 = APPROVAL ( #40, 'UNSPECIFIED' ) ;
#98 = ADVANCED_FACE ( 'NONE', ( #170 ), #72, .F. ) ;
#99 = PERSON_AND_ORGANIZATION ( #67, #6 ) ;
#100 = FACE_OUTER_BOUND ( 'NONE', #33, .T. ) ;
#101 = ADVANCED_BREP_SHAPE_REPRESENTATION ( 'Web Model 47944', ( #219, #83 ), #77 ) ;
#102 = VECTOR ( 'NONE', #153, 1000.000000000000000 ) ;
#103 = APPROVAL_PERSON_ORGANIZATION ( #45, #57, #229 ) ;
#104 = FACE_OUTER_BOUND ( 'NONE', #80, .T. ) ;
#105 = EDGE_CURVE ( 'NONE', #146, #207, #39, .T. ) ;
#106 = APPROVAL_PERSON_ORGANIZATION ( #32, #97, #59 ) ;
#107 = EDGE_LOOP ( 'NONE', ( #85, #130, #13, #216 ) ) ;
#108 = CARTESIAN_POINT ( 'NONE',  ( 0.0000000000000000000, 0.0000000000000000000, -4.000000000000000000 ) ) ;
#109 = CC_DESIGN_APPROVAL ( #97, ( #174 ) ) ;
#110 = CARTESIAN_POINT ( 'NONE',  ( 0.0000000000000000000, 50.00000000000000000, -4.000000000000000000 ) ) ;
#111 = PERSON_AND_ORGANIZATION ( #67, #6 ) ;
#112 = LINE ( 'NONE', #69, #12 ) ;
#113 = CARTESIAN_POINT ( 'NONE',  ( 0.0000000000000000000, 0.0000000000000000000, -4.000000000000000000 ) ) ;
#114 = DIRECTION ( 'NONE',  ( 1.000000000000000000, 0.0000000000000000000, 0.0000000000000000000 ) ) ;
#115 = PERSON_AND_ORGANIZATION ( #67, #6 ) ;
#116 = VECTOR ( 'NONE', #41, 1000.000000000000000 ) ;
#117 = CARTESIAN_POINT ( 'NONE',  ( 50.00000000000000000, 0.0000000000000000000, -4.000000000000000000 ) ) ;
#118 = PLANE ( 'NONE',  #123 ) ;
#119 = CARTESIAN_POINT ( 'NONE',  ( 50.00000000000000000, 50.00000000000000000, -4.000000000000000000 ) ) ;
#120 = APPROVAL_ROLE ( '' ) ;
#121 = CALENDAR_DATE ( 2017, 31, 1 ) ;
#122 = APPROVAL_STATUS ( 'not_yet_approved' ) ;
#123 = AXIS2_PLACEMENT_3D ( 'NONE', #113, #38, #231 ) ;
#124 = PRODUCT_DEFINITION_SHAPE ( 'NONE', 'NONE',  #174 ) ;
#125 = EDGE_CURVE ( 'NONE', #132, #7, #228, .T. ) ;
#126 = FACE_OUTER_BOUND ( 'NONE', #107, .T. ) ;
#127 = CC_DESIGN_APPROVAL ( #57, ( #208 ) ) ;
#128 = ORIENTED_EDGE ( 'NONE', *, *, #152, .F. ) ;
#129 = VECTOR ( 'NONE', #215, 1000.000000000000000 ) ;
#130 = ORIENTED_EDGE ( 'NONE', *, *, #237, .F. ) ;
#131 = CARTESIAN_POINT ( 'NONE',  ( 50.00000000000000000, 50.00000000000000000, -4.000000000000000000 ) ) ;
#132 = VERTEX_POINT ( 'NONE', #192 ) ;
#133 = DIRECTION ( 'NONE',  ( 0.0000000000000000000, 0.0000000000000000000, 1.000000000000000000 ) ) ;
#134 = APPROVAL ( #122, 'UNSPECIFIED' ) ;
#135 = MECHANICAL_CONTEXT ( 'NONE', #198, 'mechanical' ) ;
#136 = ORIENTED_EDGE ( 'NONE', *, *, #2, .F. ) ;
#137 = CARTESIAN_POINT ( 'NONE',  ( 50.00000000000000000, 0.0000000000000000000, -4.000000000000000000 ) ) ;
#138 = EDGE_CURVE ( 'NONE', #50, #62, #112, .T. ) ;
#139 = DIRECTION ( 'NONE',  ( 0.0000000000000000000, 1.000000000000000000, 0.0000000000000000000 ) ) ;
#140 = DIRECTION ( 'NONE',  ( 0.0000000000000000000, 0.0000000000000000000, -1.000000000000000000 ) ) ;
#141 =( NAMED_UNIT ( * ) PLANE_ANGLE_UNIT ( ) SI_UNIT ( $, .RADIAN. ) );
#142 = CC_DESIGN_PERSON_AND_ORGANIZATION_ASSIGNMENT ( #87, #46, ( #208 ) ) ;
#143 = ADVANCED_FACE ( 'NONE', ( #104 ), #217, .T. ) ;
#144 = LOCAL_TIME ( 10, 21, 0.0000000000000000000, #194 ) ;
#145 = APPROVAL_DATE_TIME ( #195, #97 ) ;
#146 = VERTEX_POINT ( 'NONE', #36 ) ;
#147 = UNCERTAINTY_MEASURE_WITH_UNIT (LENGTH_MEASURE( 1.000000000000000100E-005 ), #76, 'distance_accuracy_value', 'NONE');
#148 = VECTOR ( 'NONE', #163, 1000.000000000000000 ) ;
#149 = EDGE_LOOP ( 'NONE', ( #136, #154, #169, #34 ) ) ;
#150 = VECTOR ( 'NONE', #133, 1000.000000000000000 ) ;
#151 = EDGE_LOOP ( 'NONE', ( #88, #92, #230, #20 ) ) ;
#152 = EDGE_CURVE ( 'NONE', #30, #132, #58, .T. ) ;
#153 = DIRECTION ( 'NONE',  ( -1.000000000000000000, -0.0000000000000000000, -0.0000000000000000000 ) ) ;
#154 = ORIENTED_EDGE ( 'NONE', *, *, #138, .F. ) ;
#155 = SECURITY_CLASSIFICATION ( '', '', #166 ) ;
#156 = VECTOR ( 'NONE', #73, 1000.000000000000000 ) ;
#157 = CARTESIAN_POINT ( 'NONE',  ( 0.0000000000000000000, 0.0000000000000000000, 0.0000000000000000000 ) ) ;
#158 = APPLICATION_CONTEXT ( 'configuration controlled 3d designs of mechanical parts and assemblies' ) ;
#159 = DIRECTION ( 'NONE',  ( 0.0000000000000000000, 0.0000000000000000000, 1.000000000000000000 ) ) ;
#160 = CARTESIAN_POINT ( 'NONE',  ( 0.0000000000000000000, 0.0000000000000000000, 0.0000000000000000000 ) ) ;
#161 = LOCAL_TIME ( 10, 21, 0.0000000000000000000, #206 ) ;
#162 = ORIENTED_EDGE ( 'NONE', *, *, #233, .T. ) ;
#163 = DIRECTION ( 'NONE',  ( -0.0000000000000000000, -1.000000000000000000, -0.0000000000000000000 ) ) ;
#164 = CC_DESIGN_PERSON_AND_ORGANIZATION_ASSIGNMENT ( #199, #23, ( #35 ) ) ;
#165 = ADVANCED_FACE ( 'NONE', ( #172 ), #118, .T. ) ;
#166 = SECURITY_CLASSIFICATION_LEVEL ( 'unclassified' ) ;
#167 = ORIENTED_EDGE ( 'NONE', *, *, #138, .T. ) ;
#168 = EDGE_CURVE ( 'NONE', #207, #50, #205, .T. ) ;
#169 = ORIENTED_EDGE ( 'NONE', *, *, #168, .F. ) ;
#170 = FACE_OUTER_BOUND ( 'NONE', #21, .T. ) ;
#171 = COORDINATED_UNIVERSAL_TIME_OFFSET ( 5, 0, .BEHIND. ) ;
#172 = FACE_OUTER_BOUND ( 'NONE', #151, .T. ) ;
#173 = ORIENTED_EDGE ( 'NONE', *, *, #125, .F. ) ;
#174 = PRODUCT_DEFINITION ( 'UNKNOWN', '', #208, #89 ) ;
#175 = DIRECTION ( 'NONE',  ( 0.0000000000000000000, 0.0000000000000000000, 1.000000000000000000 ) ) ;
#176 = DATE_AND_TIME ( #18, #144 ) ;
#177 = CARTESIAN_POINT ( 'NONE',  ( 0.0000000000000000000, 50.00000000000000000, 0.0000000000000000000 ) ) ;
#178 = PRODUCT_RELATED_PRODUCT_CATEGORY ( 'detail', '', ( #35 ) ) ;
#179 = LINE ( 'NONE', #9, #150 ) ;
#180 =( NAMED_UNIT ( * ) SI_UNIT ( $, .STERADIAN. ) SOLID_ANGLE_UNIT ( ) );
#181 = DIRECTION ( 'NONE',  ( 0.0000000000000000000, 1.000000000000000000, 0.0000000000000000000 ) ) ;
#182 = ADVANCED_FACE ( 'NONE', ( #185 ), #43, .T. ) ;
#183 = DATE_AND_TIME ( #1, #202 ) ;
#184 = PERSON_AND_ORGANIZATION_ROLE ( 'creator' ) ;
#185 = FACE_OUTER_BOUND ( 'NONE', #149, .T. ) ;
#186 = ORIENTED_EDGE ( 'NONE', *, *, #152, .T. ) ;
#187 = DATE_AND_TIME ( #3, #15 ) ;
#188 = VECTOR ( 'NONE', #53, 1000.000000000000000 ) ;
#189 = ORIENTED_EDGE ( 'NONE', *, *, #223, .T. ) ;
#190 = CARTESIAN_POINT ( 'NONE',  ( 0.0000000000000000000, 50.00000000000000000, 0.0000000000000000000 ) ) ;
#191 = EDGE_CURVE ( 'NONE', #50, #132, #222, .T. ) ;
#192 = CARTESIAN_POINT ( 'NONE',  ( 50.00000000000000000, 50.00000000000000000, 0.0000000000000000000 ) ) ;
#193 = DIRECTION ( 'NONE',  ( 0.0000000000000000000, -0.0000000000000000000, 1.000000000000000000 ) ) ;
#194 = COORDINATED_UNIVERSAL_TIME_OFFSET ( 5, 0, .BEHIND. ) ;
#195 = DATE_AND_TIME ( #121, #161 ) ;
#196 = ORIENTED_EDGE ( 'NONE', *, *, #224, .F. ) ;
#197 = PERSON_AND_ORGANIZATION_ROLE ( 'creator' ) ;
#198 = APPLICATION_CONTEXT ( 'configuration controlled 3d designs of mechanical parts and assemblies' ) ;
#199 = PERSON_AND_ORGANIZATION ( #67, #6 ) ;
#200 = CC_DESIGN_DATE_AND_TIME_ASSIGNMENT ( #183, #74, ( #174 ) ) ;
#201 = DATE_TIME_ROLE ( 'classification_date' ) ;
#202 = LOCAL_TIME ( 10, 21, 0.0000000000000000000, #78 ) ;
#203 = ORIENTED_EDGE ( 'NONE', *, *, #191, .T. ) ;
#204 = CC_DESIGN_PERSON_AND_ORGANIZATION_ASSIGNMENT ( #99, #197, ( #174 ) ) ;
#205 = LINE ( 'NONE', #117, #116 ) ;
#206 = COORDINATED_UNIVERSAL_TIME_OFFSET ( 5, 0, .BEHIND. ) ;
#207 = VERTEX_POINT ( 'NONE', #137 ) ;
#208 = PRODUCT_DEFINITION_FORMATION_WITH_SPECIFIED_SOURCE ( 'ANY', '', #35, .NOT_KNOWN. ) ;
#209 = DIRECTION ( 'NONE',  ( 0.0000000000000000000, 0.0000000000000000000, -1.000000000000000000 ) ) ;
#210 = CALENDAR_DATE ( 2017, 31, 1 ) ;
#211 = VECTOR ( 'NONE', #91, 1000.000000000000000 ) ;
#212 = DIRECTION ( 'NONE',  ( -0.0000000000000000000, -1.000000000000000000, -0.0000000000000000000 ) ) ;
#213 = APPLICATION_PROTOCOL_DEFINITION ( 'international standard', 'config_control_design', 1994, #198 ) ;
#214 = APPROVAL_STATUS ( 'not_yet_approved' ) ;
#215 = DIRECTION ( 'NONE',  ( 0.0000000000000000000, 0.0000000000000000000, 1.000000000000000000 ) ) ;
#216 = ORIENTED_EDGE ( 'NONE', *, *, #29, .T. ) ;
#217 = PLANE ( 'NONE',  #51 ) ;
#218 = CARTESIAN_POINT ( 'NONE',  ( 0.0000000000000000000, 50.00000000000000000, -4.000000000000000000 ) ) ;
#219 = MANIFOLD_SOLID_BREP ( 'Extrude1', #4 ) ;
#220 = CC_DESIGN_PERSON_AND_ORGANIZATION_ASSIGNMENT ( #111, #184, ( #208 ) ) ;
#221 = VECTOR ( 'NONE', #212, 1000.000000000000000 ) ;
#222 = LINE ( 'NONE', #119, #211 ) ;
#223 = EDGE_CURVE ( 'NONE', #7, #47, #64, .T. ) ;
#224 = EDGE_CURVE ( 'NONE', #207, #30, #54, .T. ) ;
#225 = DIRECTION ( 'NONE',  ( -1.000000000000000000, 0.0000000000000000000, 0.0000000000000000000 ) ) ;
#226 = PLANE ( 'NONE',  #70 ) ;
#227 = CARTESIAN_POINT ( 'NONE',  ( 0.0000000000000000000, 50.00000000000000000, 0.0000000000000000000 ) ) ;
#228 = LINE ( 'NONE', #177, #102 ) ;
#229 = APPROVAL_ROLE ( '' ) ;
#230 = ORIENTED_EDGE ( 'NONE', *, *, #105, .T. ) ;
#231 = DIRECTION ( 'NONE',  ( 0.0000000000000000000, -0.0000000000000000000, -1.000000000000000000 ) ) ;
#232 = CARTESIAN_POINT ( 'NONE',  ( 50.00000000000000000, 0.0000000000000000000, -4.000000000000000000 ) ) ;
#233 = EDGE_CURVE ( 'NONE', #47, #30, #66, .T. ) ;
#234 = COORDINATED_UNIVERSAL_TIME_OFFSET ( 5, 0, .BEHIND. ) ;
#235 = ORIENTED_EDGE ( 'NONE', *, *, #168, .T. ) ;
#236 = ADVANCED_FACE ( 'NONE', ( #100 ), #96, .T. ) ;
#237 = EDGE_CURVE ( 'NONE', #62, #7, #17, .T. ) ;
ENDSEC;
END-ISO-10303-21;
