ISO-10303-21;
HEADER;
FILE_DESCRIPTION (( 'STEP AP203' ),
    '1' );
FILE_NAME ('Web Model 34427_Default.step',
    '2017-06-22T14:37:06',
    ( '' ),
    ( '' ),
    'SwSTEP 2.0',
    'SolidWorks 2016',
    '' );
FILE_SCHEMA (( 'CONFIG_CONTROL_DESIGN' ));
ENDSEC;

DATA;
#1 = COORDINATED_UNIVERSAL_TIME_OFFSET ( 5, 0, .BEHIND. ) ;
#2 = DIRECTION ( 'NONE',  ( 0.0000000000000000000, 0.0000000000000000000, 1.000000000000000000 ) ) ;
#3 = EDGE_LOOP ( 'NONE', ( #53, #88, #106, #126 ) ) ;
#4 = COORDINATED_UNIVERSAL_TIME_OFFSET ( 5, 0, .BEHIND. ) ;
#5 = CC_DESIGN_PERSON_AND_ORGANIZATION_ASSIGNMENT ( #125, #76, ( #119 ) ) ;
#6 = DIRECTION ( 'NONE',  ( -1.000000000000000000, 0.0000000000000000000, 0.0000000000000000000 ) ) ;
#7 = CC_DESIGN_DATE_AND_TIME_ASSIGNMENT ( #115, #39, ( #24 ) ) ;
#8 = APPROVAL_ROLE ( '' ) ;
#9 = CARTESIAN_POINT ( 'NONE',  ( -25.00000000000000000, 0.0000000000000000000, 1.000000000000000000 ) ) ;
#10 = ORIENTED_EDGE ( 'NONE', *, *, #154, .F. ) ;
#11 = PERSON ( 'UNSPECIFIED', 'UNSPECIFIED', 'UNSPECIFIED', ('UNSPECIFIED'), ('UNSPECIFIED'), ('UNSPECIFIED') ) ;
#12 =( NAMED_UNIT ( * ) SI_UNIT ( $, .STERADIAN. ) SOLID_ANGLE_UNIT ( ) );
#13 = APPROVAL ( #173, 'UNSPECIFIED' ) ;
#14 = APPROVAL_PERSON_ORGANIZATION ( #145, #30, #8 ) ;
#15 = DIRECTION ( 'NONE',  ( 1.000000000000000000, 0.0000000000000000000, 0.0000000000000000000 ) ) ;
#16 = ORIENTED_EDGE ( 'NONE', *, *, #49, .T. ) ;
#17 = PERSON_AND_ORGANIZATION ( #11, #118 ) ;
#18 = LOCAL_TIME ( 10, 37, 6.000000000000000000, #57 ) ;
#19 = PERSON_AND_ORGANIZATION_ROLE ( 'classification_officer' ) ;
#20 = FACE_OUTER_BOUND ( 'NONE', #56, .T. ) ;
#21 = DIRECTION ( 'NONE',  ( 1.000000000000000000, 0.0000000000000000000, 0.0000000000000000000 ) ) ;
#22 = DESIGN_CONTEXT ( 'detailed design', #79, 'design' ) ;
#23 = APPROVAL_DATE_TIME ( #61, #141 ) ;
#24 = SECURITY_CLASSIFICATION ( '', '', #153 ) ;
#25 = CARTESIAN_POINT ( 'NONE',  ( 0.0000000000000000000, 0.0000000000000000000, 0.0000000000000000000 ) ) ;
#26 = CYLINDRICAL_SURFACE ( 'NONE', #107, 25.00000000000000000 ) ;
#27 = APPROVAL_PERSON_ORGANIZATION ( #82, #141, #46 ) ;
#28 = ADVANCED_FACE ( 'NONE', ( #20 ), #168, .T. ) ;
#29 = CARTESIAN_POINT ( 'NONE',  ( 25.00000000000000000, 3.061616997868383000E-015, 1.000000000000000000 ) ) ;
#30 = APPROVAL ( #116, 'UNSPECIFIED' ) ;
#31 = DIRECTION ( 'NONE',  ( 0.0000000000000000000, 0.0000000000000000000, 1.000000000000000000 ) ) ;
#32 =( LENGTH_UNIT ( ) NAMED_UNIT ( * ) SI_UNIT ( .MILLI., .METRE. ) );
#33 = DIRECTION ( 'NONE',  ( 0.0000000000000000000, 0.0000000000000000000, 1.000000000000000000 ) ) ;
#34 = APPLICATION_CONTEXT ( 'configuration controlled 3d designs of mechanical parts and assemblies' ) ;
#35 = DIRECTION ( 'NONE',  ( 1.000000000000000000, 0.0000000000000000000, -0.0000000000000000000 ) ) ;
#36 = DIRECTION ( 'NONE',  ( 0.0000000000000000000, 0.0000000000000000000, 1.000000000000000000 ) ) ;
#37 = CIRCLE ( 'NONE', #60, 25.00000000000000000 ) ;
#38 = DIRECTION ( 'NONE',  ( 0.0000000000000000000, 0.0000000000000000000, 1.000000000000000000 ) ) ;
#39 = DATE_TIME_ROLE ( 'classification_date' ) ;
#40 = EDGE_LOOP ( 'NONE', ( #148, #10 ) ) ;
#41 = CARTESIAN_POINT ( 'NONE',  ( 0.0000000000000000000, 0.0000000000000000000, 1.000000000000000000 ) ) ;
#42 = PRODUCT_DEFINITION ( 'UNKNOWN', '', #119, #22 ) ;
#43 = ADVANCED_FACE ( 'NONE', ( #103 ), #172, .F. ) ;
#44 = LOCAL_TIME ( 10, 37, 6.000000000000000000, #1 ) ;
#45 =( GEOMETRIC_REPRESENTATION_CONTEXT ( 3 ) GLOBAL_UNCERTAINTY_ASSIGNED_CONTEXT ( ( #174 ) ) GLOBAL_UNIT_ASSIGNED_CONTEXT ( ( #32, #163, #12 ) ) REPRESENTATION_CONTEXT ( 'NONE', 'WORKASPACE' ) );
#46 = APPROVAL_ROLE ( '' ) ;
#47 = LOCAL_TIME ( 10, 37, 6.000000000000000000, #4 ) ;
#48 = CARTESIAN_POINT ( 'NONE',  ( 25.00000000000000000, 3.061616997868383000E-015, 1.000000000000000000 ) ) ;
#49 = EDGE_CURVE ( 'NONE', #112, #58, #37, .T. ) ;
#50 = DIRECTION ( 'NONE',  ( -0.0000000000000000000, -0.0000000000000000000, -1.000000000000000000 ) ) ;
#51 = CC_DESIGN_APPROVAL ( #30, ( #24 ) ) ;
#52 = DIRECTION ( 'NONE',  ( 0.0000000000000000000, 0.0000000000000000000, 1.000000000000000000 ) ) ;
#53 = ORIENTED_EDGE ( 'NONE', *, *, #64, .F. ) ;
#54 = EDGE_CURVE ( 'NONE', #139, #112, #68, .T. ) ;
#55 = COORDINATED_UNIVERSAL_TIME_OFFSET ( 5, 0, .BEHIND. ) ;
#56 = EDGE_LOOP ( 'NONE', ( #127, #77, #101, #16 ) ) ;
#57 = COORDINATED_UNIVERSAL_TIME_OFFSET ( 5, 0, .BEHIND. ) ;
#58 = VERTEX_POINT ( 'NONE', #164 ) ;
#59 = CARTESIAN_POINT ( 'NONE',  ( 0.0000000000000000000, 0.0000000000000000000, 1.000000000000000000 ) ) ;
#60 = AXIS2_PLACEMENT_3D ( 'NONE', #25, #31, #70 ) ;
#61 = DATE_AND_TIME ( #92, #130 ) ;
#62 = CC_DESIGN_APPROVAL ( #141, ( #119 ) ) ;
#63 = PRODUCT ( 'Web Model 34427_Default', 'Web Model 34427_Default', '', ( #96 ) ) ;
#64 = EDGE_CURVE ( 'NONE', #117, #139, #66, .T. ) ;
#65 = CARTESIAN_POINT ( 'NONE',  ( 0.0000000000000000000, 0.0000000000000000000, 1.000000000000000000 ) ) ;
#66 = CIRCLE ( 'NONE', #83, 25.00000000000000000 ) ;
#67 = CARTESIAN_POINT ( 'NONE',  ( 0.0000000000000000000, 0.0000000000000000000, 0.0000000000000000000 ) ) ;
#68 = LINE ( 'NONE', #110, #165 ) ;
#69 = CC_DESIGN_SECURITY_CLASSIFICATION ( #24, ( #119 ) ) ;
#70 = DIRECTION ( 'NONE',  ( 1.000000000000000000, 0.0000000000000000000, 0.0000000000000000000 ) ) ;
#71 = CARTESIAN_POINT ( 'NONE',  ( 0.0000000000000000000, 0.0000000000000000000, 1.000000000000000000 ) ) ;
#72 = EDGE_LOOP ( 'NONE', ( #143, #171 ) ) ;
#73 = CC_DESIGN_PERSON_AND_ORGANIZATION_ASSIGNMENT ( #150, #166, ( #63 ) ) ;
#74 = CALENDAR_DATE ( 2017, 22, 6 ) ;
#75 = DATE_AND_TIME ( #120, #85 ) ;
#76 = PERSON_AND_ORGANIZATION_ROLE ( 'design_supplier' ) ;
#77 = ORIENTED_EDGE ( 'NONE', *, *, #169, .F. ) ;
#78 = CALENDAR_DATE ( 2017, 22, 6 ) ;
#79 = APPLICATION_CONTEXT ( 'configuration controlled 3d designs of mechanical parts and assemblies' ) ;
#80 = AXIS2_PLACEMENT_3D ( 'NONE', #67, #33, #35 ) ;
#81 = APPROVAL_ROLE ( '' ) ;
#82 = PERSON_AND_ORGANIZATION ( #11, #118 ) ;
#83 = AXIS2_PLACEMENT_3D ( 'NONE', #146, #52, #21 ) ;
#84 = SHAPE_DEFINITION_REPRESENTATION ( #170, #161 ) ;
#85 = LOCAL_TIME ( 10, 37, 6.000000000000000000, #55 ) ;
#86 = DIRECTION ( 'NONE',  ( -0.0000000000000000000, -0.0000000000000000000, -1.000000000000000000 ) ) ;
#87 = PERSON_AND_ORGANIZATION_ROLE ( 'creator' ) ;
#88 = ORIENTED_EDGE ( 'NONE', *, *, #93, .T. ) ;
#89 = PERSON_AND_ORGANIZATION ( #11, #118 ) ;
#90 = CARTESIAN_POINT ( 'NONE',  ( 0.0000000000000000000, 0.0000000000000000000, 0.0000000000000000000 ) ) ;
#91 = APPLICATION_PROTOCOL_DEFINITION ( 'international standard', 'config_control_design', 1994, #34 ) ;
#92 = CALENDAR_DATE ( 2017, 22, 6 ) ;
#93 = EDGE_CURVE ( 'NONE', #117, #58, #137, .T. ) ;
#94 = ADVANCED_FACE ( 'NONE', ( #131 ), #100, .T. ) ;
#95 = CC_DESIGN_DATE_AND_TIME_ASSIGNMENT ( #122, #149, ( #42 ) ) ;
#96 = MECHANICAL_CONTEXT ( 'NONE', #34, 'mechanical' ) ;
#97 = CARTESIAN_POINT ( 'NONE',  ( -25.00000000000000000, 0.0000000000000000000, 0.0000000000000000000 ) ) ;
#98 = DIRECTION ( 'NONE',  ( 1.000000000000000000, 0.0000000000000000000, -0.0000000000000000000 ) ) ;
#99 = VECTOR ( 'NONE', #86, 1000.000000000000000 ) ;
#100 = PLANE ( 'NONE',  #132 ) ;
#101 = ORIENTED_EDGE ( 'NONE', *, *, #54, .T. ) ;
#102 = DIRECTION ( 'NONE',  ( -1.000000000000000000, 0.0000000000000000000, 0.0000000000000000000 ) ) ;
#103 = FACE_OUTER_BOUND ( 'NONE', #40, .T. ) ;
#104 = CC_DESIGN_PERSON_AND_ORGANIZATION_ASSIGNMENT ( #89, #19, ( #24 ) ) ;
#105 = DIRECTION ( 'NONE',  ( -0.0000000000000000000, -0.0000000000000000000, -1.000000000000000000 ) ) ;
#106 = ORIENTED_EDGE ( 'NONE', *, *, #154, .T. ) ;
#107 = AXIS2_PLACEMENT_3D ( 'NONE', #71, #156, #102 ) ;
#108 = PERSON_AND_ORGANIZATION ( #11, #118 ) ;
#109 = APPROVAL_DATE_TIME ( #75, #30 ) ;
#110 = CARTESIAN_POINT ( 'NONE',  ( -25.00000000000000000, 0.0000000000000000000, 1.000000000000000000 ) ) ;
#111 = CLOSED_SHELL ( 'NONE', ( #140, #28, #94, #43 ) ) ;
#112 = VERTEX_POINT ( 'NONE', #97 ) ;
#113 = DIRECTION ( 'NONE',  ( 1.000000000000000000, 0.0000000000000000000, 0.0000000000000000000 ) ) ;
#114 = DATE_AND_TIME ( #78, #47 ) ;
#115 = DATE_AND_TIME ( #151, #18 ) ;
#116 = APPROVAL_STATUS ( 'not_yet_approved' ) ;
#117 = VERTEX_POINT ( 'NONE', #48 ) ;
#118 = ORGANIZATION ( 'UNSPECIFIED', 'UNSPECIFIED', '' ) ;
#119 = PRODUCT_DEFINITION_FORMATION_WITH_SPECIFIED_SOURCE ( 'ANY', '', #63, .NOT_KNOWN. ) ;
#120 = CALENDAR_DATE ( 2017, 22, 6 ) ;
#121 = DIRECTION ( 'NONE',  ( 0.0000000000000000000, 0.0000000000000000000, 1.000000000000000000 ) ) ;
#122 = DATE_AND_TIME ( #74, #44 ) ;
#123 = APPROVAL_STATUS ( 'not_yet_approved' ) ;
#124 = MANIFOLD_SOLID_BREP ( 'Boss-Extrude1', #111 ) ;
#125 = PERSON_AND_ORGANIZATION ( #11, #118 ) ;
#126 = ORIENTED_EDGE ( 'NONE', *, *, #54, .F. ) ;
#127 = ORIENTED_EDGE ( 'NONE', *, *, #93, .F. ) ;
#128 = CIRCLE ( 'NONE', #157, 25.00000000000000000 ) ;
#129 = APPLICATION_PROTOCOL_DEFINITION ( 'international standard', 'config_control_design', 1994, #79 ) ;
#130 = LOCAL_TIME ( 10, 37, 6.000000000000000000, #160 ) ;
#131 = FACE_OUTER_BOUND ( 'NONE', #72, .T. ) ;
#132 = AXIS2_PLACEMENT_3D ( 'NONE', #41, #36, #98 ) ;
#133 = PERSON_AND_ORGANIZATION_ROLE ( 'creator' ) ;
#134 = FACE_OUTER_BOUND ( 'NONE', #3, .T. ) ;
#135 = AXIS2_PLACEMENT_3D ( 'NONE', #90, #2, #136 ) ;
#136 = DIRECTION ( 'NONE',  ( 1.000000000000000000, 0.0000000000000000000, 0.0000000000000000000 ) ) ;
#137 = LINE ( 'NONE', #29, #99 ) ;
#138 = CC_DESIGN_APPROVAL ( #13, ( #42 ) ) ;
#139 = VERTEX_POINT ( 'NONE', #9 ) ;
#140 = ADVANCED_FACE ( 'NONE', ( #134 ), #26, .T. ) ;
#141 = APPROVAL ( #123, 'UNSPECIFIED' ) ;
#142 = APPROVAL_PERSON_ORGANIZATION ( #17, #13, #81 ) ;
#143 = ORIENTED_EDGE ( 'NONE', *, *, #169, .T. ) ;
#144 = APPROVAL_DATE_TIME ( #114, #13 ) ;
#145 = PERSON_AND_ORGANIZATION ( #11, #118 ) ;
#146 = CARTESIAN_POINT ( 'NONE',  ( 0.0000000000000000000, 0.0000000000000000000, 1.000000000000000000 ) ) ;
#147 = CC_DESIGN_PERSON_AND_ORGANIZATION_ASSIGNMENT ( #155, #133, ( #119 ) ) ;
#148 = ORIENTED_EDGE ( 'NONE', *, *, #49, .F. ) ;
#149 = DATE_TIME_ROLE ( 'creation_date' ) ;
#150 = PERSON_AND_ORGANIZATION ( #11, #118 ) ;
#151 = CALENDAR_DATE ( 2017, 22, 6 ) ;
#152 = PRODUCT_RELATED_PRODUCT_CATEGORY ( 'detail', '', ( #63 ) ) ;
#153 = SECURITY_CLASSIFICATION_LEVEL ( 'unclassified' ) ;
#154 = EDGE_CURVE ( 'NONE', #58, #112, #128, .T. ) ;
#155 = PERSON_AND_ORGANIZATION ( #11, #118 ) ;
#156 = DIRECTION ( 'NONE',  ( -0.0000000000000000000, -0.0000000000000000000, -1.000000000000000000 ) ) ;
#157 = AXIS2_PLACEMENT_3D ( 'NONE', #158, #38, #15 ) ;
#158 = CARTESIAN_POINT ( 'NONE',  ( 0.0000000000000000000, 0.0000000000000000000, 0.0000000000000000000 ) ) ;
#159 = CIRCLE ( 'NONE', #175, 25.00000000000000000 ) ;
#160 = COORDINATED_UNIVERSAL_TIME_OFFSET ( 5, 0, .BEHIND. ) ;
#161 = ADVANCED_BREP_SHAPE_REPRESENTATION ( 'Web Model 34427_Default', ( #124, #135 ), #45 ) ;
#162 = AXIS2_PLACEMENT_3D ( 'NONE', #65, #105, #6 ) ;
#163 =( NAMED_UNIT ( * ) PLANE_ANGLE_UNIT ( ) SI_UNIT ( $, .RADIAN. ) );
#164 = CARTESIAN_POINT ( 'NONE',  ( 25.00000000000000000, 3.061616997868383000E-015, 0.0000000000000000000 ) ) ;
#165 = VECTOR ( 'NONE', #50, 1000.000000000000000 ) ;
#166 = PERSON_AND_ORGANIZATION_ROLE ( 'design_owner' ) ;
#167 = CC_DESIGN_PERSON_AND_ORGANIZATION_ASSIGNMENT ( #108, #87, ( #42 ) ) ;
#168 = CYLINDRICAL_SURFACE ( 'NONE', #162, 25.00000000000000000 ) ;
#169 = EDGE_CURVE ( 'NONE', #139, #117, #159, .T. ) ;
#170 = PRODUCT_DEFINITION_SHAPE ( 'NONE', 'NONE',  #42 ) ;
#171 = ORIENTED_EDGE ( 'NONE', *, *, #64, .T. ) ;
#172 = PLANE ( 'NONE',  #80 ) ;
#173 = APPROVAL_STATUS ( 'not_yet_approved' ) ;
#174 = UNCERTAINTY_MEASURE_WITH_UNIT (LENGTH_MEASURE( 1.000000000000000100E-005 ), #32, 'distance_accuracy_value', 'NONE');
#175 = AXIS2_PLACEMENT_3D ( 'NONE', #59, #121, #113 ) ;
ENDSEC;
END-ISO-10303-21;
