ISO-10303-21;
HEADER;
FILE_DESCRIPTION (( 'STEP AP203' ),
    '1' );
FILE_NAME ('43637_Default.step',
    '2017-04-12T17:35:13',
    ( '' ),
    ( '' ),
    'SwSTEP 2.0',
    'SolidWorks 2016',
    '' );
FILE_SCHEMA (( 'CONFIG_CONTROL_DESIGN' ));
ENDSEC;

DATA;
#1 = AXIS2_PLACEMENT_3D ( 'NONE', #103, #95, #50 ) ;
#2 = ORIENTED_EDGE ( 'NONE', *, *, #38, .F. ) ;
#3 = APPROVAL_ROLE ( '' ) ;
#4 = PRODUCT_DEFINITION_FORMATION_WITH_SPECIFIED_SOURCE ( 'ANY', '', #144, .NOT_KNOWN. ) ;
#5 = LOCAL_TIME ( 13, 35, 13.00000000000000000, #42 ) ;
#6 = CALENDAR_DATE ( 2017, 12, 4 ) ;
#7 = LOCAL_TIME ( 13, 35, 13.00000000000000000, #37 ) ;
#8 = LOCAL_TIME ( 13, 35, 13.00000000000000000, #59 ) ;
#9 = ORIENTED_EDGE ( 'NONE', *, *, #139, .F. ) ;
#10 = PERSON_AND_ORGANIZATION ( #113, #19 ) ;
#11 = COORDINATED_UNIVERSAL_TIME_OFFSET ( 5, 0, .BEHIND. ) ;
#12 = APPROVAL ( #79, 'UNSPECIFIED' ) ;
#13 = ORIENTED_EDGE ( 'NONE', *, *, #153, .T. ) ;
#14 = APPROVAL_ROLE ( '' ) ;
#15 = ADVANCED_FACE ( 'NONE', ( #135 ), #22, .T. ) ;
#16 = PRODUCT_DEFINITION ( 'UNKNOWN', '', #4, #21 ) ;
#17 = MECHANICAL_CONTEXT ( 'NONE', #23, 'mechanical' ) ;
#18 = CIRCLE ( 'NONE', #58, 15.87500000000000000 ) ;
#19 = ORGANIZATION ( 'UNSPECIFIED', 'UNSPECIFIED', '' ) ;
#20 = PERSON_AND_ORGANIZATION ( #113, #19 ) ;
#21 = DESIGN_CONTEXT ( 'detailed design', #114, 'design' ) ;
#22 = CYLINDRICAL_SURFACE ( 'NONE', #1, 15.87500000000000000 ) ;
#23 = APPLICATION_CONTEXT ( 'configuration controlled 3d designs of mechanical parts and assemblies' ) ;
#24 = PERSON_AND_ORGANIZATION ( #113, #19 ) ;
#25 = AXIS2_PLACEMENT_3D ( 'NONE', #100, #150, #84 ) ;
#26 = DIRECTION ( 'NONE',  ( -0.0000000000000000000, -0.0000000000000000000, -1.000000000000000000 ) ) ;
#27 = CC_DESIGN_SECURITY_CLASSIFICATION ( #171, ( #4 ) ) ;
#28 = PERSON_AND_ORGANIZATION ( #113, #19 ) ;
#29 = APPROVAL_PERSON_ORGANIZATION ( #28, #155, #51 ) ;
#30 = VERTEX_POINT ( 'NONE', #158 ) ;
#31 = CC_DESIGN_PERSON_AND_ORGANIZATION_ASSIGNMENT ( #77, #33, ( #16 ) ) ;
#32 = CYLINDRICAL_SURFACE ( 'NONE', #123, 15.87500000000000000 ) ;
#33 = PERSON_AND_ORGANIZATION_ROLE ( 'creator' ) ;
#34 =( NAMED_UNIT ( * ) SI_UNIT ( $, .STERADIAN. ) SOLID_ANGLE_UNIT ( ) );
#35 = EDGE_LOOP ( 'NONE', ( #163, #97 ) ) ;
#36 = PERSON_AND_ORGANIZATION_ROLE ( 'classification_officer' ) ;
#37 = COORDINATED_UNIVERSAL_TIME_OFFSET ( 5, 0, .BEHIND. ) ;
#38 = EDGE_CURVE ( 'NONE', #68, #74, #138, .T. ) ;
#39 = AXIS2_PLACEMENT_3D ( 'NONE', #130, #143, #49 ) ;
#40 = FACE_OUTER_BOUND ( 'NONE', #105, .T. ) ;
#41 = CC_DESIGN_PERSON_AND_ORGANIZATION_ASSIGNMENT ( #24, #36, ( #171 ) ) ;
#42 = COORDINATED_UNIVERSAL_TIME_OFFSET ( 5, 0, .BEHIND. ) ;
#43 = ORIENTED_EDGE ( 'NONE', *, *, #117, .T. ) ;
#44 = SHAPE_DEFINITION_REPRESENTATION ( #164, #174 ) ;
#45 = DATE_AND_TIME ( #60, #5 ) ;
#46 = PERSON_AND_ORGANIZATION_ROLE ( 'design_owner' ) ;
#47 = APPROVAL_DATE_TIME ( #140, #149 ) ;
#48 = CLOSED_SHELL ( 'NONE', ( #63, #15, #86, #53 ) ) ;
#49 = DIRECTION ( 'NONE',  ( 1.000000000000000000, 0.0000000000000000000, 0.0000000000000000000 ) ) ;
#50 = DIRECTION ( 'NONE',  ( -1.000000000000000000, 0.0000000000000000000, 0.0000000000000000000 ) ) ;
#51 = APPROVAL_ROLE ( '' ) ;
#52 = CC_DESIGN_PERSON_AND_ORGANIZATION_ASSIGNMENT ( #10, #46, ( #144 ) ) ;
#53 = ADVANCED_FACE ( 'NONE', ( #57 ), #157, .F. ) ;
#54 = CALENDAR_DATE ( 2017, 12, 4 ) ;
#55 = APPROVAL_DATE_TIME ( #56, #12 ) ;
#56 = DATE_AND_TIME ( #67, #8 ) ;
#57 = FACE_OUTER_BOUND ( 'NONE', #92, .T. ) ;
#58 = AXIS2_PLACEMENT_3D ( 'NONE', #141, #98, #71 ) ;
#59 = COORDINATED_UNIVERSAL_TIME_OFFSET ( 5, 0, .BEHIND. ) ;
#60 = CALENDAR_DATE ( 2017, 12, 4 ) ;
#61 = CARTESIAN_POINT ( 'NONE',  ( -15.87500000000000000, 0.0000000000000000000, 0.5000000000000000000 ) ) ;
#62 = EDGE_CURVE ( 'NONE', #68, #78, #145, .T. ) ;
#63 = ADVANCED_FACE ( 'NONE', ( #40 ), #32, .T. ) ;
#64 = AXIS2_PLACEMENT_3D ( 'NONE', #108, #115, #118 ) ;
#65 = LOCAL_TIME ( 13, 35, 13.00000000000000000, #11 ) ;
#66 = CALENDAR_DATE ( 2017, 12, 4 ) ;
#68 = VERTEX_POINT ( 'NONE', #128 ) ;
#67 = CALENDAR_DATE ( 2017, 12, 4 ) ;
#69 = DIRECTION ( 'NONE',  ( 1.000000000000000000, 0.0000000000000000000, 0.0000000000000000000 ) ) ;
#70 = VECTOR ( 'NONE', #26, 1000.000000000000000 ) ;
#71 = DIRECTION ( 'NONE',  ( 1.000000000000000000, 0.0000000000000000000, 0.0000000000000000000 ) ) ;
#72 = DATE_AND_TIME ( #66, #65 ) ;
#73 = CARTESIAN_POINT ( 'NONE',  ( 0.0000000000000000000, 0.0000000000000000000, -0.5000000000000000000 ) ) ;
#74 = VERTEX_POINT ( 'NONE', #61 ) ;
#75 = ORIENTED_EDGE ( 'NONE', *, *, #136, .T. ) ;
#76 = VECTOR ( 'NONE', #161, 1000.000000000000000 ) ;
#77 = PERSON_AND_ORGANIZATION ( #113, #19 ) ;
#78 = VERTEX_POINT ( 'NONE', #101 ) ;
#79 = APPROVAL_STATUS ( 'not_yet_approved' ) ;
#80 = DIRECTION ( 'NONE',  ( 0.0000000000000000000, 0.0000000000000000000, 1.000000000000000000 ) ) ;
#81 = DIRECTION ( 'NONE',  ( 0.0000000000000000000, 0.0000000000000000000, 1.000000000000000000 ) ) ;
#82 =( GEOMETRIC_REPRESENTATION_CONTEXT ( 3 ) GLOBAL_UNCERTAINTY_ASSIGNED_CONTEXT ( ( #127 ) ) GLOBAL_UNIT_ASSIGNED_CONTEXT ( ( #90, #160, #34 ) ) REPRESENTATION_CONTEXT ( 'NONE', 'WORKASPACE' ) );
#83 = ORIENTED_EDGE ( 'NONE', *, *, #62, .F. ) ;
#84 = DIRECTION ( 'NONE',  ( 1.000000000000000000, 0.0000000000000000000, -0.0000000000000000000 ) ) ;
#85 = AXIS2_PLACEMENT_3D ( 'NONE', #109, #81, #96 ) ;
#86 = ADVANCED_FACE ( 'NONE', ( #110 ), #93, .T. ) ;
#87 = APPLICATION_PROTOCOL_DEFINITION ( 'international standard', 'config_control_design', 1994, #23 ) ;
#88 = AXIS2_PLACEMENT_3D ( 'NONE', #112, #121, #122 ) ;
#89 = MANIFOLD_SOLID_BREP ( 'Boss-Extrude1', #48 ) ;
#90 =( LENGTH_UNIT ( ) NAMED_UNIT ( * ) SI_UNIT ( .MILLI., .METRE. ) );
#91 = PERSON_AND_ORGANIZATION ( #113, #19 ) ;
#92 = EDGE_LOOP ( 'NONE', ( #147, #107 ) ) ;
#93 = PLANE ( 'NONE',  #25 ) ;
#94 = CC_DESIGN_APPROVAL ( #149, ( #16 ) ) ;
#95 = DIRECTION ( 'NONE',  ( -0.0000000000000000000, -0.0000000000000000000, -1.000000000000000000 ) ) ;
#96 = DIRECTION ( 'NONE',  ( 1.000000000000000000, 0.0000000000000000000, 0.0000000000000000000 ) ) ;
#97 = ORIENTED_EDGE ( 'NONE', *, *, #38, .T. ) ;
#98 = DIRECTION ( 'NONE',  ( 0.0000000000000000000, 0.0000000000000000000, 1.000000000000000000 ) ) ;
#99 = CARTESIAN_POINT ( 'NONE',  ( -15.87500000000000000, 0.0000000000000000000, 0.5000000000000000000 ) ) ;
#100 = CARTESIAN_POINT ( 'NONE',  ( 0.0000000000000000000, 0.0000000000000000000, 0.5000000000000000000 ) ) ;
#101 = CARTESIAN_POINT ( 'NONE',  ( 15.87500000000000000, 1.944126793646423200E-015, -0.5000000000000000000 ) ) ;
#102 = AXIS2_PLACEMENT_3D ( 'NONE', #73, #80, #69 ) ;
#103 = CARTESIAN_POINT ( 'NONE',  ( 0.0000000000000000000, 0.0000000000000000000, 0.5000000000000000000 ) ) ;
#104 = CIRCLE ( 'NONE', #102, 15.87500000000000000 ) ;
#105 = EDGE_LOOP ( 'NONE', ( #2, #168, #13, #173 ) ) ;
#106 = DATE_TIME_ROLE ( 'classification_date' ) ;
#107 = ORIENTED_EDGE ( 'NONE', *, *, #153, .F. ) ;
#108 = CARTESIAN_POINT ( 'NONE',  ( 0.0000000000000000000, 0.0000000000000000000, 0.5000000000000000000 ) ) ;
#109 = CARTESIAN_POINT ( 'NONE',  ( 0.0000000000000000000, 0.0000000000000000000, 0.5000000000000000000 ) ) ;
#110 = FACE_OUTER_BOUND ( 'NONE', #35, .T. ) ;
#111 = LOCAL_TIME ( 13, 35, 13.00000000000000000, #167 ) ;
#112 = CARTESIAN_POINT ( 'NONE',  ( 0.0000000000000000000, 0.0000000000000000000, -0.5000000000000000000 ) ) ;
#113 = PERSON ( 'UNSPECIFIED', 'UNSPECIFIED', 'UNSPECIFIED', ('UNSPECIFIED'), ('UNSPECIFIED'), ('UNSPECIFIED') ) ;
#114 = APPLICATION_CONTEXT ( 'configuration controlled 3d designs of mechanical parts and assemblies' ) ;
#115 = DIRECTION ( 'NONE',  ( 0.0000000000000000000, 0.0000000000000000000, 1.000000000000000000 ) ) ;
#116 = APPROVAL_DATE_TIME ( #172, #155 ) ;
#117 = EDGE_CURVE ( 'NONE', #74, #30, #152, .T. ) ;
#118 = DIRECTION ( 'NONE',  ( 1.000000000000000000, 0.0000000000000000000, 0.0000000000000000000 ) ) ;
#119 = APPROVAL_PERSON_ORGANIZATION ( #91, #12, #3 ) ;
#120 = CC_DESIGN_APPROVAL ( #155, ( #171 ) ) ;
#121 = DIRECTION ( 'NONE',  ( 0.0000000000000000000, 0.0000000000000000000, 1.000000000000000000 ) ) ;
#122 = DIRECTION ( 'NONE',  ( 1.000000000000000000, 0.0000000000000000000, -0.0000000000000000000 ) ) ;
#123 = AXIS2_PLACEMENT_3D ( 'NONE', #126, #132, #142 ) ;
#124 = PERSON_AND_ORGANIZATION ( #113, #19 ) ;
#125 = DATE_TIME_ROLE ( 'creation_date' ) ;
#126 = CARTESIAN_POINT ( 'NONE',  ( 0.0000000000000000000, 0.0000000000000000000, 0.5000000000000000000 ) ) ;
#127 = UNCERTAINTY_MEASURE_WITH_UNIT (LENGTH_MEASURE( 1.000000000000000100E-005 ), #90, 'distance_accuracy_value', 'NONE');
#128 = CARTESIAN_POINT ( 'NONE',  ( 15.87500000000000000, 1.944126793646423200E-015, 0.5000000000000000000 ) ) ;
#129 = SECURITY_CLASSIFICATION_LEVEL ( 'unclassified' ) ;
#130 = CARTESIAN_POINT ( 'NONE',  ( 0.0000000000000000000, 0.0000000000000000000, 0.0000000000000000000 ) ) ;
#131 = CC_DESIGN_DATE_AND_TIME_ASSIGNMENT ( #45, #125, ( #16 ) ) ;
#132 = DIRECTION ( 'NONE',  ( -0.0000000000000000000, -0.0000000000000000000, -1.000000000000000000 ) ) ;
#133 = CARTESIAN_POINT ( 'NONE',  ( 15.87500000000000000, 1.944126793646423200E-015, 0.5000000000000000000 ) ) ;
#134 = EDGE_LOOP ( 'NONE', ( #83, #9, #43, #75 ) ) ;
#135 = FACE_OUTER_BOUND ( 'NONE', #134, .T. ) ;
#136 = EDGE_CURVE ( 'NONE', #30, #78, #104, .T. ) ;
#137 = CC_DESIGN_APPROVAL ( #12, ( #4 ) ) ;
#138 = CIRCLE ( 'NONE', #64, 15.87500000000000000 ) ;
#139 = EDGE_CURVE ( 'NONE', #74, #68, #162, .T. ) ;
#140 = DATE_AND_TIME ( #54, #7 ) ;
#141 = CARTESIAN_POINT ( 'NONE',  ( 0.0000000000000000000, 0.0000000000000000000, -0.5000000000000000000 ) ) ;
#142 = DIRECTION ( 'NONE',  ( -1.000000000000000000, 0.0000000000000000000, 0.0000000000000000000 ) ) ;
#143 = DIRECTION ( 'NONE',  ( 0.0000000000000000000, 0.0000000000000000000, 1.000000000000000000 ) ) ;
#144 = PRODUCT ( '43637_Default', '43637_Default', '', ( #17 ) ) ;
#145 = LINE ( 'NONE', #133, #70 ) ;
#146 = APPROVAL_STATUS ( 'not_yet_approved' ) ;
#147 = ORIENTED_EDGE ( 'NONE', *, *, #136, .F. ) ;
#148 = APPROVAL_PERSON_ORGANIZATION ( #159, #149, #14 ) ;
#149 = APPROVAL ( #154, 'UNSPECIFIED' ) ;
#150 = DIRECTION ( 'NONE',  ( 0.0000000000000000000, 0.0000000000000000000, 1.000000000000000000 ) ) ;
#151 = PERSON_AND_ORGANIZATION_ROLE ( 'creator' ) ;
#152 = LINE ( 'NONE', #99, #76 ) ;
#153 = EDGE_CURVE ( 'NONE', #78, #30, #18, .T. ) ;
#154 = APPROVAL_STATUS ( 'not_yet_approved' ) ;
#155 = APPROVAL ( #146, 'UNSPECIFIED' ) ;
#156 = CC_DESIGN_PERSON_AND_ORGANIZATION_ASSIGNMENT ( #124, #151, ( #4 ) ) ;
#157 = PLANE ( 'NONE',  #88 ) ;
#158 = CARTESIAN_POINT ( 'NONE',  ( -15.87500000000000000, 0.0000000000000000000, -0.5000000000000000000 ) ) ;
#159 = PERSON_AND_ORGANIZATION ( #113, #19 ) ;
#160 =( NAMED_UNIT ( * ) PLANE_ANGLE_UNIT ( ) SI_UNIT ( $, .RADIAN. ) );
#161 = DIRECTION ( 'NONE',  ( -0.0000000000000000000, -0.0000000000000000000, -1.000000000000000000 ) ) ;
#162 = CIRCLE ( 'NONE', #85, 15.87500000000000000 ) ;
#163 = ORIENTED_EDGE ( 'NONE', *, *, #139, .T. ) ;
#164 = PRODUCT_DEFINITION_SHAPE ( 'NONE', 'NONE',  #16 ) ;
#165 = CC_DESIGN_PERSON_AND_ORGANIZATION_ASSIGNMENT ( #20, #170, ( #4 ) ) ;
#166 = APPLICATION_PROTOCOL_DEFINITION ( 'international standard', 'config_control_design', 1994, #114 ) ;
#167 = COORDINATED_UNIVERSAL_TIME_OFFSET ( 5, 0, .BEHIND. ) ;
#168 = ORIENTED_EDGE ( 'NONE', *, *, #62, .T. ) ;
#169 = PRODUCT_RELATED_PRODUCT_CATEGORY ( 'detail', '', ( #144 ) ) ;
#170 = PERSON_AND_ORGANIZATION_ROLE ( 'design_supplier' ) ;
#171 = SECURITY_CLASSIFICATION ( '', '', #129 ) ;
#172 = DATE_AND_TIME ( #6, #111 ) ;
#173 = ORIENTED_EDGE ( 'NONE', *, *, #117, .F. ) ;
#174 = ADVANCED_BREP_SHAPE_REPRESENTATION ( '43637_Default', ( #89, #39 ), #82 ) ;
#175 = CC_DESIGN_DATE_AND_TIME_ASSIGNMENT ( #72, #106, ( #171 ) ) ;
ENDSEC;
END-ISO-10303-21;
