ISO-10303-21;
HEADER;
FILE_DESCRIPTION (( 'STEP AP203' ),
    '1' );
FILE_NAME ('Web Model 43848_49574.step',
    '2018-03-12T20:51:39',
    ( '' ),
    ( '' ),
    'SwSTEP 2.0',
    'SolidWorks 2016',
    '' );
FILE_SCHEMA (( 'CONFIG_CONTROL_DESIGN' ));
ENDSEC;

DATA;
#1 = LINE ( 'NONE', #87, #19 ) ;
#2 = ORIENTED_EDGE ( 'NONE', *, *, #144, .T. ) ;
#3 = AXIS2_PLACEMENT_3D ( 'NONE', #41, #187, #134 ) ;
#4 = DATE_AND_TIME ( #190, #145 ) ;
#5 = LINE ( 'NONE', #130, #47 ) ;
#6 = PRODUCT ( 'Web Model 43848_49574', 'Web Model 43848_49574', '', ( #25 ) ) ;
#7 = VECTOR ( 'NONE', #171, 1000.000000000000000 ) ;
#8 = APPROVAL_STATUS ( 'not_yet_approved' ) ;
#9 = VERTEX_POINT ( 'NONE', #56 ) ;
#10 = APPROVAL_ROLE ( '' ) ;
#11 = PERSON_AND_ORGANIZATION_ROLE ( 'design_owner' ) ;
#12 = ORGANIZATION ( 'UNSPECIFIED', 'UNSPECIFIED', '' ) ;
#13 = EDGE_LOOP ( 'NONE', ( #213, #57, #109, #217 ) ) ;
#14 = COORDINATED_UNIVERSAL_TIME_OFFSET ( 5, 0, .BEHIND. ) ;
#15 = FACE_OUTER_BOUND ( 'NONE', #155, .T. ) ;
#16 = DIRECTION ( 'NONE',  ( 0.0000000000000000000, 2.775557561562891400E-016, -1.000000000000000000 ) ) ;
#17 = DIRECTION ( 'NONE',  ( 0.0000000000000000000, 0.0000000000000000000, -1.000000000000000000 ) ) ;
#18 = COORDINATED_UNIVERSAL_TIME_OFFSET ( 5, 0, .BEHIND. ) ;
#19 = VECTOR ( 'NONE', #34, 1000.000000000000000 ) ;
#20 = CC_DESIGN_PERSON_AND_ORGANIZATION_ASSIGNMENT ( #77, #199, ( #79 ) ) ;
#21 = MANIFOLD_SOLID_BREP ( 'Boss-Extrude1', #211 ) ;
#22 = ORIENTED_EDGE ( 'NONE', *, *, #82, .F. ) ;
#23 = APPROVAL ( #8, 'UNSPECIFIED' ) ;
#24 = CARTESIAN_POINT ( 'NONE',  ( 4.750000000000000000, -12.50000000000000000, 12.50000000000000000 ) ) ;
#25 = MECHANICAL_CONTEXT ( 'NONE', #194, 'mechanical' ) ;
#26 = ORIENTED_EDGE ( 'NONE', *, *, #103, .T. ) ;
#27 = APPLICATION_PROTOCOL_DEFINITION ( 'international standard', 'config_control_design', 1994, #102 ) ;
#28 = CC_DESIGN_APPROVAL ( #226, ( #79 ) ) ;
#29 = CARTESIAN_POINT ( 'NONE',  ( -4.750000000000000000, 12.50000000000000000, -12.50000000000000000 ) ) ;
#30 = DATE_AND_TIME ( #165, #52 ) ;
#31 = DIRECTION ( 'NONE',  ( -0.0000000000000000000, -2.775557561562891400E-016, 1.000000000000000000 ) ) ;
#32 = ORIENTED_EDGE ( 'NONE', *, *, #218, .T. ) ;
#33 = CARTESIAN_POINT ( 'NONE',  ( 4.750000000000000000, -12.50000000000000000, -12.50000000000000000 ) ) ;
#34 = DIRECTION ( 'NONE',  ( -0.0000000000000000000, 1.000000000000000000, -0.0000000000000000000 ) ) ;
#35 = ORIENTED_EDGE ( 'NONE', *, *, #218, .F. ) ;
#36 = CC_DESIGN_PERSON_AND_ORGANIZATION_ASSIGNMENT ( #135, #201, ( #84 ) ) ;
#37 = LINE ( 'NONE', #58, #66 ) ;
#38 = CARTESIAN_POINT ( 'NONE',  ( 4.750000000000000000, -12.50000000000000000, -12.50000000000000000 ) ) ;
#39 = ORIENTED_EDGE ( 'NONE', *, *, #169, .T. ) ;
#40 = EDGE_CURVE ( 'NONE', #138, #137, #5, .T. ) ;
#41 = CARTESIAN_POINT ( 'NONE',  ( 4.750000000000000000, -12.50000000000000000, 12.50000000000000000 ) ) ;
#42 = DIRECTION ( 'NONE',  ( 1.000000000000000000, 0.0000000000000000000, 0.0000000000000000000 ) ) ;
#43 = DIRECTION ( 'NONE',  ( -1.000000000000000000, -0.0000000000000000000, -0.0000000000000000000 ) ) ;
#44 = PRODUCT_RELATED_PRODUCT_CATEGORY ( 'detail', '', ( #6 ) ) ;
#45 = APPROVAL_PERSON_ORGANIZATION ( #86, #23, #121 ) ;
#46 = APPLICATION_PROTOCOL_DEFINITION ( 'international standard', 'config_control_design', 1994, #194 ) ;
#47 = VECTOR ( 'NONE', #17, 1000.000000000000000 ) ;
#48 = EDGE_LOOP ( 'NONE', ( #234, #55, #35, #94 ) ) ;
#49 = PERSON_AND_ORGANIZATION_ROLE ( 'design_supplier' ) ;
#50 = ADVANCED_BREP_SHAPE_REPRESENTATION ( 'Web Model 43848_49574', ( #21, #197 ), #125 ) ;
#51 = DIRECTION ( 'NONE',  ( 0.0000000000000000000, 0.0000000000000000000, 1.000000000000000000 ) ) ;
#52 = LOCAL_TIME ( 16, 51, 39.00000000000000000, #216 ) ;
#53 = PERSON_AND_ORGANIZATION_ROLE ( 'classification_officer' ) ;
#54 = DIRECTION ( 'NONE',  ( 0.0000000000000000000, -1.000000000000000000, 0.0000000000000000000 ) ) ;
#55 = ORIENTED_EDGE ( 'NONE', *, *, #233, .F. ) ;
#56 = CARTESIAN_POINT ( 'NONE',  ( 4.750000000000000000, -12.50000000000000000, 12.50000000000000000 ) ) ;
#57 = ORIENTED_EDGE ( 'NONE', *, *, #144, .F. ) ;
#58 = CARTESIAN_POINT ( 'NONE',  ( -4.750000000000000000, 12.49999999999999300, 12.50000000000000000 ) ) ;
#59 = CARTESIAN_POINT ( 'NONE',  ( 4.750000000000000000, 12.49999999999999300, 12.50000000000000000 ) ) ;
#60 = LINE ( 'NONE', #72, #117 ) ;
#61 = DIRECTION ( 'NONE',  ( -1.000000000000000000, 0.0000000000000000000, -0.0000000000000000000 ) ) ;
#62 = CARTESIAN_POINT ( 'NONE',  ( 4.750000000000000000, 12.49999999999999300, 12.50000000000000000 ) ) ;
#63 = APPROVAL_PERSON_ORGANIZATION ( #107, #204, #10 ) ;
#64 = AXIS2_PLACEMENT_3D ( 'NONE', #207, #152, #88 ) ;
#65 = ORIENTED_EDGE ( 'NONE', *, *, #206, .F. ) ;
#66 = VECTOR ( 'NONE', #133, 1000.000000000000000 ) ;
#67 = ORIENTED_EDGE ( 'NONE', *, *, #223, .F. ) ;
#68 = APPROVAL_DATE_TIME ( #184, #23 ) ;
#69 = DIRECTION ( 'NONE',  ( 0.0000000000000000000, 0.0000000000000000000, -1.000000000000000000 ) ) ;
#70 = CARTESIAN_POINT ( 'NONE',  ( 4.750000000000000000, 12.50000000000000000, -12.50000000000000000 ) ) ;
#71 = PERSON_AND_ORGANIZATION ( #172, #12 ) ;
#72 = CARTESIAN_POINT ( 'NONE',  ( -4.750000000000000000, 12.50000000000000000, -12.50000000000000000 ) ) ;
#73 = FACE_OUTER_BOUND ( 'NONE', #13, .T. ) ;
#74 = CARTESIAN_POINT ( 'NONE',  ( 4.750000000000000000, 12.49999999999999300, 12.50000000000000000 ) ) ;
#75 = CARTESIAN_POINT ( 'NONE',  ( 0.0000000000000000000, 0.0000000000000000000, 0.0000000000000000000 ) ) ;
#76 = DIRECTION ( 'NONE',  ( 0.0000000000000000000, 0.0000000000000000000, -1.000000000000000000 ) ) ;
#77 = PERSON_AND_ORGANIZATION ( #172, #12 ) ;
#78 = APPROVAL_STATUS ( 'not_yet_approved' ) ;
#79 = PRODUCT_DEFINITION ( 'UNKNOWN', '', #84, #236 ) ;
#80 = PERSON_AND_ORGANIZATION ( #172, #12 ) ;
#81 = FACE_OUTER_BOUND ( 'NONE', #160, .T. ) ;
#82 = EDGE_CURVE ( 'NONE', #168, #139, #196, .T. ) ;
#83 = ORIENTED_EDGE ( 'NONE', *, *, #166, .T. ) ;
#84 = PRODUCT_DEFINITION_FORMATION_WITH_SPECIFIED_SOURCE ( 'ANY', '', #6, .NOT_KNOWN. ) ;
#85 = PLANE ( 'NONE',  #200 ) ;
#86 = PERSON_AND_ORGANIZATION ( #172, #12 ) ;
#87 = CARTESIAN_POINT ( 'NONE',  ( 4.750000000000000000, 12.50000000000000000, -12.50000000000000000 ) ) ;
#88 = DIRECTION ( 'NONE',  ( 0.0000000000000000000, 0.0000000000000000000, -1.000000000000000000 ) ) ;
#89 = CARTESIAN_POINT ( 'NONE',  ( -4.750000000000000000, -12.50000000000000000, 12.50000000000000000 ) ) ;
#90 = LOCAL_TIME ( 16, 51, 39.00000000000000000, #208 ) ;
#91 = LINE ( 'NONE', #228, #181 ) ;
#92 = VERTEX_POINT ( 'NONE', #33 ) ;
#93 =( LENGTH_UNIT ( ) NAMED_UNIT ( * ) SI_UNIT ( .MILLI., .METRE. ) );
#94 = ORIENTED_EDGE ( 'NONE', *, *, #235, .T. ) ;
#95 = CC_DESIGN_DATE_AND_TIME_ASSIGNMENT ( #124, #98, ( #79 ) ) ;
#96 = EDGE_CURVE ( 'NONE', #147, #138, #202, .T. ) ;
#97 = LINE ( 'NONE', #38, #173 ) ;
#98 = DATE_TIME_ROLE ( 'creation_date' ) ;
#99 = DIRECTION ( 'NONE',  ( 1.000000000000000000, 0.0000000000000000000, 0.0000000000000000000 ) ) ;
#100 = DATE_AND_TIME ( #176, #224 ) ;
#101 = ORIENTED_EDGE ( 'NONE', *, *, #82, .T. ) ;
#102 = APPLICATION_CONTEXT ( 'configuration controlled 3d designs of mechanical parts and assemblies' ) ;
#103 = EDGE_CURVE ( 'NONE', #9, #92, #178, .T. ) ;
#104 = SHAPE_DEFINITION_REPRESENTATION ( #182, #50 ) ;
#105 = DIRECTION ( 'NONE',  ( 0.0000000000000000000, -1.000000000000000000, -2.775557561562891400E-016 ) ) ;
#106 = CC_DESIGN_APPROVAL ( #204, ( #227 ) ) ;
#107 = PERSON_AND_ORGANIZATION ( #172, #12 ) ;
#108 = DIRECTION ( 'NONE',  ( -1.000000000000000000, -0.0000000000000000000, -0.0000000000000000000 ) ) ;
#109 = ORIENTED_EDGE ( 'NONE', *, *, #103, .F. ) ;
#110 = AXIS2_PLACEMENT_3D ( 'NONE', #62, #210, #61 ) ;
#111 = LINE ( 'NONE', #24, #189 ) ;
#112 = ORIENTED_EDGE ( 'NONE', *, *, #96, .F. ) ;
#113 = ORIENTED_EDGE ( 'NONE', *, *, #206, .T. ) ;
#114 =( NAMED_UNIT ( * ) SI_UNIT ( $, .STERADIAN. ) SOLID_ANGLE_UNIT ( ) );
#115 = CARTESIAN_POINT ( 'NONE',  ( 4.750000000000000000, 0.0000000000000000000, 0.0000000000000000000 ) ) ;
#116 = ADVANCED_FACE ( 'NONE', ( #15 ), #85, .F. ) ;
#117 = VECTOR ( 'NONE', #154, 1000.000000000000000 ) ;
#118 = VERTEX_POINT ( 'NONE', #29 ) ;
#119 = PLANE ( 'NONE',  #140 ) ;
#120 = ADVANCED_FACE ( 'NONE', ( #73 ), #136, .F. ) ;
#121 = APPROVAL_ROLE ( '' ) ;
#122 = VECTOR ( 'NONE', #69, 1000.000000000000000 ) ;
#123 = ORIENTED_EDGE ( 'NONE', *, *, #169, .F. ) ;
#124 = DATE_AND_TIME ( #186, #90 ) ;
#125 =( GEOMETRIC_REPRESENTATION_CONTEXT ( 3 ) GLOBAL_UNCERTAINTY_ASSIGNED_CONTEXT ( ( #179 ) ) GLOBAL_UNIT_ASSIGNED_CONTEXT ( ( #93, #156, #114 ) ) REPRESENTATION_CONTEXT ( 'NONE', 'WORKASPACE' ) );
#126 = VECTOR ( 'NONE', #193, 1000.000000000000000 ) ;
#127 = VECTOR ( 'NONE', #31, 1000.000000000000000 ) ;
#128 = CARTESIAN_POINT ( 'NONE',  ( -4.750000000000000000, -12.50000000000000000, -12.50000000000000000 ) ) ;
#129 = AXIS2_PLACEMENT_3D ( 'NONE', #209, #225, #222 ) ;
#130 = CARTESIAN_POINT ( 'NONE',  ( -4.750000000000000000, -12.50000000000000000, 12.50000000000000000 ) ) ;
#131 = PERSON_AND_ORGANIZATION ( #172, #12 ) ;
#132 = PLANE ( 'NONE',  #64 ) ;
#133 = DIRECTION ( 'NONE',  ( -0.0000000000000000000, -2.775557561562891400E-016, 1.000000000000000000 ) ) ;
#134 = DIRECTION ( 'NONE',  ( 0.0000000000000000000, -0.0000000000000000000, 1.000000000000000000 ) ) ;
#135 = PERSON_AND_ORGANIZATION ( #172, #12 ) ;
#136 = PLANE ( 'NONE',  #3 ) ;
#137 = VERTEX_POINT ( 'NONE', #128 ) ;
#138 = VERTEX_POINT ( 'NONE', #89 ) ;
#139 = VERTEX_POINT ( 'NONE', #59 ) ;
#140 = AXIS2_PLACEMENT_3D ( 'NONE', #115, #42, #76 ) ;
#141 = FACE_OUTER_BOUND ( 'NONE', #48, .T. ) ;
#142 = VECTOR ( 'NONE', #54, 1000.000000000000000 ) ;
#143 = APPROVAL_DATE_TIME ( #100, #204 ) ;
#144 = EDGE_CURVE ( 'NONE', #92, #137, #97, .T. ) ;
#145 = LOCAL_TIME ( 16, 51, 39.00000000000000000, #18 ) ;
#146 = CC_DESIGN_PERSON_AND_ORGANIZATION_ASSIGNMENT ( #131, #11, ( #6 ) ) ;
#147 = VERTEX_POINT ( 'NONE', #221 ) ;
#148 = CALENDAR_DATE ( 2018, 12, 3 ) ;
#149 = PLANE ( 'NONE',  #129 ) ;
#150 = CC_DESIGN_SECURITY_CLASSIFICATION ( #227, ( #84 ) ) ;
#151 = APPROVAL_PERSON_ORGANIZATION ( #203, #226, #215 ) ;
#152 = DIRECTION ( 'NONE',  ( 1.000000000000000000, 0.0000000000000000000, 0.0000000000000000000 ) ) ;
#153 = ORIENTED_EDGE ( 'NONE', *, *, #40, .F. ) ;
#154 = DIRECTION ( 'NONE',  ( -0.0000000000000000000, 1.000000000000000000, -0.0000000000000000000 ) ) ;
#155 = EDGE_LOOP ( 'NONE', ( #113, #163, #22, #220 ) ) ;
#156 =( NAMED_UNIT ( * ) PLANE_ANGLE_UNIT ( ) SI_UNIT ( $, .RADIAN. ) );
#157 = ADVANCED_FACE ( 'NONE', ( #195 ), #149, .F. ) ;
#158 = CC_DESIGN_APPROVAL ( #23, ( #84 ) ) ;
#159 = LINE ( 'NONE', #74, #7 ) ;
#160 = EDGE_LOOP ( 'NONE', ( #32, #26, #39, #101 ) ) ;
#161 = SECURITY_CLASSIFICATION_LEVEL ( 'unclassified' ) ;
#162 = CARTESIAN_POINT ( 'NONE',  ( 4.750000000000000000, -12.50000000000000000, 12.50000000000000000 ) ) ;
#163 = ORIENTED_EDGE ( 'NONE', *, *, #235, .F. ) ;
#164 = CARTESIAN_POINT ( 'NONE',  ( 4.750000000000000000, 12.49999999999999300, 12.50000000000000000 ) ) ;
#165 = CALENDAR_DATE ( 2018, 12, 3 ) ;
#166 = EDGE_CURVE ( 'NONE', #137, #118, #60, .T. ) ;
#167 = CC_DESIGN_PERSON_AND_ORGANIZATION_ASSIGNMENT ( #71, #49, ( #84 ) ) ;
#168 = VERTEX_POINT ( 'NONE', #70 ) ;
#169 = EDGE_CURVE ( 'NONE', #92, #168, #1, .T. ) ;
#170 = CARTESIAN_POINT ( 'NONE',  ( 4.750000000000000000, 12.49999999999999300, 12.50000000000000000 ) ) ;
#171 = DIRECTION ( 'NONE',  ( 0.0000000000000000000, -1.000000000000000000, 0.0000000000000000000 ) ) ;
#172 = PERSON ( 'UNSPECIFIED', 'UNSPECIFIED', 'UNSPECIFIED', ('UNSPECIFIED'), ('UNSPECIFIED'), ('UNSPECIFIED') ) ;
#173 = VECTOR ( 'NONE', #108, 1000.000000000000000 ) ;
#174 = EDGE_LOOP ( 'NONE', ( #83, #67, #123, #2 ) ) ;
#175 = APPROVAL_STATUS ( 'not_yet_approved' ) ;
#176 = CALENDAR_DATE ( 2018, 12, 3 ) ;
#177 = LINE ( 'NONE', #170, #126 ) ;
#178 = LINE ( 'NONE', #162, #122 ) ;
#179 = UNCERTAINTY_MEASURE_WITH_UNIT (LENGTH_MEASURE( 1.000000000000000100E-005 ), #93, 'distance_accuracy_value', 'NONE');
#180 = APPROVAL_DATE_TIME ( #4, #226 ) ;
#181 = VECTOR ( 'NONE', #230, 1000.000000000000000 ) ;
#182 = PRODUCT_DEFINITION_SHAPE ( 'NONE', 'NONE',  #79 ) ;
#183 = CC_DESIGN_PERSON_AND_ORGANIZATION_ASSIGNMENT ( #80, #53, ( #227 ) ) ;
#184 = DATE_AND_TIME ( #148, #188 ) ;
#185 = CARTESIAN_POINT ( 'NONE',  ( -4.750000000000000000, 12.49999999999999300, 12.50000000000000000 ) ) ;
#186 = CALENDAR_DATE ( 2018, 12, 3 ) ;
#187 = DIRECTION ( 'NONE',  ( -0.0000000000000000000, 1.000000000000000000, 0.0000000000000000000 ) ) ;
#188 = LOCAL_TIME ( 16, 51, 39.00000000000000000, #237 ) ;
#189 = VECTOR ( 'NONE', #43, 1000.000000000000000 ) ;
#190 = CALENDAR_DATE ( 2018, 12, 3 ) ;
#191 = PLANE ( 'NONE',  #110 ) ;
#192 = ADVANCED_FACE ( 'NONE', ( #205 ), #132, .F. ) ;
#193 = DIRECTION ( 'NONE',  ( -1.000000000000000000, -0.0000000000000000000, -0.0000000000000000000 ) ) ;
#194 = APPLICATION_CONTEXT ( 'configuration controlled 3d designs of mechanical parts and assemblies' ) ;
#195 = FACE_OUTER_BOUND ( 'NONE', #174, .T. ) ;
#196 = LINE ( 'NONE', #164, #127 ) ;
#197 = AXIS2_PLACEMENT_3D ( 'NONE', #75, #51, #99 ) ;
#198 = ORIENTED_EDGE ( 'NONE', *, *, #166, .F. ) ;
#199 = PERSON_AND_ORGANIZATION_ROLE ( 'creator' ) ;
#200 = AXIS2_PLACEMENT_3D ( 'NONE', #219, #105, #16 ) ;
#201 = PERSON_AND_ORGANIZATION_ROLE ( 'creator' ) ;
#202 = LINE ( 'NONE', #185, #142 ) ;
#203 = PERSON_AND_ORGANIZATION ( #172, #12 ) ;
#204 = APPROVAL ( #78, 'UNSPECIFIED' ) ;
#205 = FACE_OUTER_BOUND ( 'NONE', #212, .T. ) ;
#206 = EDGE_CURVE ( 'NONE', #118, #147, #37, .T. ) ;
#207 = CARTESIAN_POINT ( 'NONE',  ( -4.750000000000000000, 0.0000000000000000000, 0.0000000000000000000 ) ) ;
#208 = COORDINATED_UNIVERSAL_TIME_OFFSET ( 5, 0, .BEHIND. ) ;
#209 = CARTESIAN_POINT ( 'NONE',  ( 4.750000000000000000, 12.50000000000000000, -12.50000000000000000 ) ) ;
#210 = DIRECTION ( 'NONE',  ( 0.0000000000000000000, 0.0000000000000000000, -1.000000000000000000 ) ) ;
#211 = CLOSED_SHELL ( 'NONE', ( #229, #120, #157, #116, #231, #192 ) ) ;
#212 = EDGE_LOOP ( 'NONE', ( #112, #65, #198, #153 ) ) ;
#213 = ORIENTED_EDGE ( 'NONE', *, *, #40, .T. ) ;
#214 = DATE_TIME_ROLE ( 'classification_date' ) ;
#215 = APPROVAL_ROLE ( '' ) ;
#216 = COORDINATED_UNIVERSAL_TIME_OFFSET ( 5, 0, .BEHIND. ) ;
#217 = ORIENTED_EDGE ( 'NONE', *, *, #233, .T. ) ;
#218 = EDGE_CURVE ( 'NONE', #139, #9, #159, .T. ) ;
#219 = CARTESIAN_POINT ( 'NONE',  ( 4.750000000000000000, 12.49999999999999300, 12.50000000000000000 ) ) ;
#220 = ORIENTED_EDGE ( 'NONE', *, *, #223, .T. ) ;
#221 = CARTESIAN_POINT ( 'NONE',  ( -4.750000000000000000, 12.49999999999999300, 12.50000000000000000 ) ) ;
#222 = DIRECTION ( 'NONE',  ( 1.000000000000000000, 0.0000000000000000000, 0.0000000000000000000 ) ) ;
#223 = EDGE_CURVE ( 'NONE', #168, #118, #91, .T. ) ;
#224 = LOCAL_TIME ( 16, 51, 39.00000000000000000, #14 ) ;
#225 = DIRECTION ( 'NONE',  ( -0.0000000000000000000, 0.0000000000000000000, 1.000000000000000000 ) ) ;
#226 = APPROVAL ( #175, 'UNSPECIFIED' ) ;
#227 = SECURITY_CLASSIFICATION ( '', '', #161 ) ;
#228 = CARTESIAN_POINT ( 'NONE',  ( 4.750000000000000000, 12.50000000000000000, -12.50000000000000000 ) ) ;
#229 = ADVANCED_FACE ( 'NONE', ( #141 ), #191, .F. ) ;
#230 = DIRECTION ( 'NONE',  ( -1.000000000000000000, -0.0000000000000000000, -0.0000000000000000000 ) ) ;
#231 = ADVANCED_FACE ( 'NONE', ( #81 ), #119, .T. ) ;
#232 = CC_DESIGN_DATE_AND_TIME_ASSIGNMENT ( #30, #214, ( #227 ) ) ;
#233 = EDGE_CURVE ( 'NONE', #9, #138, #111, .T. ) ;
#234 = ORIENTED_EDGE ( 'NONE', *, *, #96, .T. ) ;
#235 = EDGE_CURVE ( 'NONE', #139, #147, #177, .T. ) ;
#236 = DESIGN_CONTEXT ( 'detailed design', #102, 'design' ) ;
#237 = COORDINATED_UNIVERSAL_TIME_OFFSET ( 5, 0, .BEHIND. ) ;
ENDSEC;
END-ISO-10303-21;
